Ectomy - Reality Sucks Chords & Tabs

 

Reality Sucks Chords & Tabs

Ectomy Chords & Tabs

Version: 1 Type: Bass Tab 0 ratings
1 star 2 stars 3 stars 4 stars 5 stars
comments

Reality Sucks Bass Tab

Band:Ectomy
Song:Reality Sucks
Album:morbid souls
[ Tab from: http://www.guitartabs.cc/tabs/e/ectomy/reality_sucks_btab.html ]
intro:
d----------------------------------------------------------
a--4----4----4----4----5----4----8----2--------------------
e-----6---8-----2----0----0----1---------------------------
b22-00-0-0-22-22-0-20-2-32--------------2222220000----22--00
intro played x1
verse:
d----------------------------------------------------------
a----------------------------------------------------------
e---------------------------------------------------------
b2200--2200--2200--28-01--2200--2200--2232--00--1--2--0--1-
verse played x5
chorus:
d----------------------------------------------------------
a----------------------------------------------------------
e-24--22--32-------------2102------------------------------
b0--22--00--22--22---3201----------------------------------
chorus played x2
verse

chorus

bass solo
d-----6-6-6-666-892-012--------89210-----------------------
a22-----6--2---7---2---666777------------------------------
e------------------------------------22----32--------44--00
b--------------------------------------0000--22222110--00--

This is a hidden song and only was put on the cd but then it got takin off. 
Its harder than fuck!!!!!  e-mail me if u can play it at
                           slipknot_maggot22@hotmail.com
Comments