Econoline Crush - By The Riverside Chords & Tabs


By The Riverside Chords & Tabs

Econoline Crush Chords & Tabs

Version: 1 Type: Tab 0 ratings
1 star 2 stars 3 stars 4 stars 5 stars

By The Riverside Tab

By The Riverside- Econoline Crush
CD: Brand New History
Tabber: Mitchell (
Tuning: Standard
V =vibrato   h =hammer on   ^^ =bend   / =slide

I turned the strings in the intro into guitar... kinda. Just use vibrato for that.
The rest is very simple.

Intro... then Verse:    Repeat this over & over
e ---------------------|------------------
B -7---5-------12---10-|-2-----3-----2h3--
G -V---V---6---V----V--|----4-----4-------
D ---------V-----------|------------------
A ---------------------|------------------
E ---------------------|------------------
[ Tab from: ]
e -10/7-|---------------------------------------------------------------------
B -^^---|---------------------------------------------------------------------
G ------|-4-4-4-4-4-4-4-4--7-7-7-7-7-7-7-7------------------------------------
D ------|-4-4-4-4-4-4-4-4--7-7-7-7-7-7-7-7--5-5-5-5-5-5-5-5--4-4-4-4-4-4-4-4--
A ------|-2-2-2-2-2-2-2-2--5-5-5-5-5-5-5-5--5-5-5-5-5-5-5-5--4-4-4-4-4-4-4-4--
E ------|-----------------------------------3-3-3-3-3-3-3-3--2-2-2-2-2-2-2-2--

Chords: F#5: 244xxx   G5: 355xxx   B5: x244xx   D5: x577xx

Tab originally from: