Echos - Green Grass Chords & Tabs

 

Green Grass Chords & Tabs

Echos Chords & Tabs

Version: 1 Type: Tab 0 ratings
1 star 2 stars 3 stars 4 stars 5 stars
comments

Green Grass Tab

This is a strange song but the guitar in it is really cool. Its a little hard to hear
but listen close im pretty sure theres nothin wrong with this tab.

(4)
e|----------------------|
b|----------------------|
g|----------------------|
d|-------3--3-5-1-3~5~3-|
a|-------3--------------|
d|-3-5-1-3--------------|

Now the drums
[ Tab from: http://www.guitartabs.cc/tabs/e/echos/green_grass_tab.html ]
(2)
e|-----------------------------|
b|-----------------------------|
g|-----------------------------|
d|-3------5------1------3------|
a|-3------5------1------3------|
d|-3------5------1------3------|

Now this is the solo this is the only
part im not sure about.

e|--------------------------------------------------|
b|--------------------------------------------------|
g|--------------------------------------------------|
d|---------------33551--33551--3355-----------------|
a|---------------------------------3355-------------|
d|-3333~5555---------------------------3355555555~3-|

Now do the first part three more times and fade out as it ends.
Comments