Echos - Darkness Chords & Tabs

 

Darkness Chords & Tabs

Echos Chords & Tabs

Version: 1 Type: Tab 0 ratings
1 star 2 stars 3 stars 4 stars 5 stars
comments

Darkness Tab

Echoes is just starting to get big they are playing alot of shows and they are awsome. 
is one of their biggest songs.


Ok this is an awsome song but im tired so this is just the intro.
Here it is and have fun with it.

Do this two times clean.
e|-------------------------|
b|-------------------------|
g|-------------------------|
d|-------------------------|
a|-------------------------|
d|-3---3----5---5----7---7-|
[ Tab from: http://www.guitartabs.cc/tabs/e/echos/darkness_tab.html ]
Now use a distortion petal and play this four times.
e|------------------------|
b|------------------------|
g|------------------------|
d|-33--55--77---99--------|
a|-33--55--77---99--------|
d|-33--55--77---99--------|

Now the drums come in and do this until the solo.
e|-----------------------------|
b|-----------------------------|
g|-----------------------------|
d|-333--555--777--999--3-5-7-9-|
a|-333--555--777--999--3-5-7-9-|
d|-333--555--777--999--3-5-7-9-|
Comments