Echo And The Bunnymen - Show Of Strength Chords & Tabs

 

Show Of Strength Chords & Tabs

Echo And The Bunnymen Chords & Tabs

Version: 1 Type: Bass Tab

Show Of Strength Bass Tab

   
SHOW OF STRENGTH
Echo And The Bunnymen

Taken from the Warner album Heaven Up Here (1981/2003 Reissue)

Transcribed by: Damian Pamminger (TwitcheD_85@hotmail.com)

Standard tuning: E A D G

Pause

Fig. 1 (7x)
| -----------------------------|
| -2------------2--------------|
|-----2--3---------2--3--0-----|
| -----------------------------|

Fig. 2 (12x)
| -----------------------------|
|-----5------------5--5--------|
|-7------5-----7--------5-5----|
| -----------------------------|
[ Tab from: http://www.guitartabs.cc/tabs/e/echo_and_the_bunnymen/show_of_strength_btab.html ]
Fig. 3 (1x)
| ------------------------------------------4--4--4--4-------------------------|
| ---------------5--5--5--3--2--2--2--2--2---------------------------5--5--5---|
|-3--3--3--3--3----------------------------------------3--3--3--3--3-----------|
|------------------------------------------------------------------------------|

| ------------------9--9--9--/-12-\-|
|-----------------------------------|
| -8--7--7--7--7--7-----------------|
|-----------------------------------|

Fig. 2 (12x)
Fig. 3 (1x)

Fig. 4 (1x)
|-------------------------|----------|------------------------------------|
|-------------------------| --REPEAT-| -----------------------------------|
|---------------5--7------| ten-more-| -------------5--7-7-7-7-7-7-7-7----|
|-3--3---5--5-------------|--times---|-3--3--5--5-------------------------|

Fig. 3 (1x)

Fig. 5 (Repeat until fade)
| -----------------------------|
| -----------------------------|
|----3--2---------3--2---------|
|-0--------0-0--0-------0-0----|