Echo And The Bunnymen - Lips Like Sugar Chords & Tabs

 

Lips Like Sugar Chords & Tabs

Echo And The Bunnymen Chords & Tabs

Version: 1 Type: Tab

Lips Like Sugar Tab

Another Great song by The Bunnymen i already tabbed out : What if we are and scissors in 
sand of their new album this is an old but still as awesome song of their album The 
or Ballyhoo
                                   Lips Like Sugar
                                     (THE RIFF)
Part 1
e|----------------------------------------------------------------------------------|
B|----------------------------------------------------------------------------------|
G|----------------------------------------------------------------------------------|
D|-------2------1--------2----1------------------4----------------------------------|
A|-----------------------------------2----------------------------------------------|
E|----------------------------------------------------------------------------------|
Part 2
e|---------------------------------------------------------------------------------|
B|---------------------------------------------------------------------------------|
G|---------------------------------------------------------------------------------|
D|----------2------1---------2-----1-----------------------------------------------|
A|------------------------------------------2-----------0--------------------------|
E|---------------------------------------------------------------------------------|
Thats it but u can also play it here which to me sounds betta !
Part 1
e|-----------------------------------------------------------------------------------|
B|-----------------------------------------------------------------------------------|
G|------------9-------8----------9------8-----------------11-------------------------|
D|---------------------------------------------9-------------------------------------|
A|-----------------------------------------------------------------------------------|
E|---------------------------------------------------------------------------|Part 2-|

e|-----------------------------------------------------|
B|-----------------------------------------------------|
G|-----------9------8--------9---------8---------------|
D|--------------------------------------------9-----7--|
A|-----------------------------------------------------|
E|-----------------------------------------------------|
Cheers c ya later and remember LIPS LIKE SUGAR SUGAR KISSES
[ Tab from: http://www.guitartabs.cc/tabs/e/echo_and_the_bunnymen/lips_like_sugar_tab.html ]