Echo And The Bunnymen - Killing Moon Chords & Tabs

 

Killing Moon Chords & Tabs

Echo And The Bunnymen Chords & Tabs

Version: 1 Type: Tab 0 ratings
1 star 2 stars 3 stars 4 stars 5 stars
comments

Killing Moon Tab

   
Tabbed by: Greg Joyce
Email:

Tuning: Normal

Bm Bm/A G (2x)
E------------7(h)9----|
B---3-5/6-----------3-|
G-4-------------------|
D---------------------|
A---------------------|
E---------------------|

Em             C
E--x--         E--1---| >
B--x--         B--1---| > B
G--x--         G------| >
D--2--         D--2---| }
A--2--         A--3---| } A
E-----         E--3---| }

Verse strumming rhythm 1-23, 123, 1-23, 123
When strumming C for 1-2 strum A, for 3, 123 strum B

Em
Under blue moon I saw you
C
So soon you'll take me
Em
Up in your arms to late to beg you
C
Or cancel it though I know it must be
Em
The killing time
C
Unwillingly mine

CHORUS:
G   Cm                  G
Fate, up against your will
Cm                      G
Through the thick and thin
Cm              G
He will wait until
Cm                   G  Cm
You give yourself to him

Em /// Em /// C /// C ///

Em
In starlit nights I saw you
C
So cruelly you kissed me
Em
Your lips a magic world
C
The sky all hung with jewels
Em
The killing moon
C
Will come too soon

REPEAT CHORUS & SOLO:
[ Tab from: http://www.guitartabs.cc/tabs/e/echo_and_the_bunnymen/killing_moon_tab.html ]
E----------------------------------------------|
B-3-0-0-3-0-5-0-7-0-8-10-8-7-5-0-5-0-5-0-5-0-5-|
G----------------------------------------------|
D----------------------------------------------|
A----------------------------------------------|
E----------------------------------------------|


E------------------------------------------|
B-3-0-0-3-0-5-0-7-0-8-10-8-7-8-0-8-0-8-0-8-|
G------------------------------------------|
D------------------------------------------|
A------------------------------------------|
E------------------------------------------|


E------------------------------------------------|
B-3-0-0-3-0-5-0-7-0-8-10-8-7-8/10-0-10-0-10-0-10-|
G------------------------------------------------|
D------------------------------------------------|
A------------------------------------------------|
E------------------------------------------------|


E------------------------------------------|
B-3-0-0-3-0-5-0-7-0-8-10-8-7-3-0-3-0-3-0-3-|
G------------------------------------------|
D------------------------------------------|
A------------------------------------------|
E------------------------------------------|


E----------------------|
B-3-0----------3-0-----|
G----2-------------2---|
D------2-------------2-|
A----------------------|
E----------------------|

REPEAT FIRST VERSE AND CHORUS TO FADE
Comments