Echo And The Bunnymen - Killing Moon Chords & Tabs

 

Killing Moon Chords & Tabs

Echo And The Bunnymen Chords & Tabs

Version: 1 Type: Bass Tab

Killing Moon Bass Tab

   
come in after drum fill intro
   
verse
G|----------------|-------------|
D|----------------|--55-----55--|
A|-7-7--5h7-7--5--|33-----33----|
E|----------------|----3------3-|   


Chorus
G|---------------|
D|---------------|
A|--------33-3-3-|
E|-3--33---------|
[ Tab from: http://www.guitartabs.cc/tabs/e/echo_and_the_bunnymen/killing_moon_btab.html ]
Bridge
  1 e + a  2 e + a  3 e + a  4 e + a
G|--------|--------|--------|--------|
D|--------|--------|--------|--------|
A|14141414|14141414|14141414|14141414|
E|--------|--------|--------|--------|  

  1 e + a  2 e + a  3 e + a  4 e + a
G|--------|--------|--------|--------|
D|--------|--------|--------|--------|
A|12121212|12121212|10101010|7 7 7 7 |
E|--------|--------|--------|--------| 


to be clear that's 14,12,10, 7

anyway thats the jist of it.