Ebeneezer Splooge - Weiner Song Chords & Tabs

 

Weiner Song Chords & Tabs

Ebeneezer Splooge Chords & Tabs

Version: 1 Type: Tab 0 ratings
1 star 2 stars 3 stars 4 stars 5 stars
comments

Weiner Song Tab

   
Song: Weiner Song
Artist: Ebeneezer Splooge
Tabbed by: Twatface McDougal of 'Ebeneezer Splooge'
E-Mail: the_dookke_is_back@hotmail.com


Tuning: Standard 

Interlude:

e|-------------------------------|
B|-------------------------------|
G|-------------------------------|
D|-8-8-8-8-8-8-8-8-8-8-8-8-8-8-8-|
A|-7-7-7-7-7-7-7-7-7-7-7-7-7-7-0-|
E|-0-0-0-0-0-0-0-0-0-0-0-0-0-0-6-|

e|-------------------------------|
B|-------------------------------|
G|-------------------------------|
D|-8-8-8-8-8-8-8-8-8-8-8-8-8-8-8-|
A|-7-7-7-7-7-7-7-7-7-7-7-7-7-7-0-|
E|-0-0-0-0-0-0-0-0-0-0-0-0-0-0-6-|
[ Tab from: http://www.guitartabs.cc/tabs/e/ebeneezer_splooge/weiner_song_tab.html ]
e|---------------|----------------|
B|---------------|----------------|
G|---------------|----------------|
D|-8-8-8-8-8-8-8-|8-8-8-8-8-8-8-8-|
A|-7-7-7-7-7-7-0-|7-7-7-7-7-7-7-0-|
E|-0-0-0-0-0-0-6-|0-0-0-0-0-0-0-6-|

e|-------------|
B|-------------|
G|-------------|
D|-8-8-8-8-8-8-|
A|-7-7-0-7-7-0-|
E|-0-0-6-0-0-6-|

e|-------------|
B|-------------|
G|-------------|
D|-8-8-8-8-8-8-|
A|-7-7-0-7-7-0-|
E|-0-0-6-0-0-6-|

Verse:

e|-----------------------|
B|-----------------------|
G|-----------------------|
D|-12-12-11-11-10-10-9-9-|
A|-10-10-9--9--8--8--7-7-|
E|-----------------------|

Lyrics:
1st Verse: 'Weiner'
2nd Verse: 'Pissing'
3rd Verse: 'Shitting'
4th Verse: 'Splooging'

Note: Sing each syllable of the word each time you strum the power
chords. Go through it like four times, then on the fifthe time, let
the last power chord ring, out, go back to the interlude, then 
straight back into the verse. E-Mail me with any problems.
Comments