Ebbert Mark - Quick Licken Chords & Tabs

 

Quick Licken Chords & Tabs

Ebbert Mark Chords & Tabs

Version: 1 Type: Tab 0 ratings
1 star 2 stars 3 stars 4 stars 5 stars
comments

Quick Licken Tab

                        
e-0-4-7-------7-4-0-      
a-------4-5-4-------
d-------------------
g------------------
b-------------------
e-------------------  x2


e-----------------
a-0-4-7-------7-4-
d-------4-5-4-----
g-----------------
b-----------------
e-----------------
[ Tab from: http://www.guitartabs.cc/tabs/e/ebbert_mark/quick_licken_tab.html ]
after the second lick go strait back into the first lick and only
play it once, then play the ending:

e-7-------5--------0-4-7-------7-4-0
a---6-9-6---4-7-4--------4-5-4------
d-----------------------------------
g-----------------------------------
b-----------------------------------
e-----------------------------------


Comments