Ebba Gron - 800 Grader Chords & Tabs

 

800 Grader Chords & Tabs

Ebba Gron Chords & Tabs

Version: 2 Type: Bass Tab

800 Grader Bass Tab

Intro:
E:5-5-7-7----------------------|
A:--------7-7-9-7--------------|
D:-----------------------------|             x4
G:-----------------------------|

Verse:
E:5-5-7-7--------|
A:--------77-9-7-|
D:---------------|             x4
G:---------------|
[ Tab from: http://www.guitartabs.cc/tabs/e/ebba_gron/800_grader_btab_ver_2.html ]
Pre-chours
E:5--------------5---5-|
A:-4-7-----5---5---4---|       x2
D:-----6-9---4---------|
G:---------------------|

Chorus
E:-------------------------------------------|
A:9-9-9-9-7-7-7-7-2-2-2-2-0-0-0-0------------|
D:-------------------------------------------|           x4
G:-------------------------------------------|