Easyworld - Try Not To Think Chords & Tabs

 

Try Not To Think Chords & Tabs

Easyworld Chords & Tabs

Version: 1 Type: Bass Tab 0 ratings
1 star 2 stars 3 stars 4 stars 5 stars
comments

Try Not To Think Bass Tab

Artist - Easyworld
Song - Try not to Think
Album - This is Where I Stand/Better Ways to Self Destruct
Tabbed by - Rose (abadchoice@hotmail.com)

INTRO  (X4)
g ----------------------------------!
d -----0-----0-0---------1----1-1---!
a -1-1----11-------1-1-1----11------!
e ----------------------------------!

VERSE 
g ----------------------------------!
d -----0-----0-0---------1----1-1---! (X3)
a -1-1----11-------1-1-1----11------!
e ----------------------------------!
[ Tab from: http://www.guitartabs.cc/tabs/e/easyworld/try_not_to_think_btab.html ]
g ---------------------------------!
d -----0-----0-0---------1----1----!
a -1-1----11-------1-1-1----11--1--!
e ---------------------------------!
  are......   you  know...
g ----------------------------------!
d ----------------------------------!
a -----1-----1-1-------1---4-3-1-3--!
e -3-3----33-------2-2--------------!
  things 
g ----------------------------------!
d -----0-----0-0---------1----1-1---! (X3)
a -1-1----11-------1-1-1----11------!
e ----------------------------------!

g ---------------------------------!
d -----0-----0-0---------1----1----!
a -1-1----11-------1-1-1----11--1--!
e ---------------------------------!
  face          upon         body
g --------------------------------------!
d --------------------------------------!
a -----1----1-------1----1-------1----1-!
e -3-3---33-----2-2---22-----1-1---11---!
  of         si co   po  st
g ----------!---------------!
d ----------!--------1------!
a ----------!-1----------3--!
e -00000000-!----3----------!

CHORUS
g --------------------!-----------00000000-!
d -00000000--11111111-!-33333333-----------!
a --------------------!--------------------!
e --------------------!--------------------!

g -------------X000X000-!
d ----------------------!
a -33333333-------------!
e ----------------------!

BRIDGE
g -----------!
d --------3--!
a -1---4-----!
e -----------!
Comments