Easyworld - This Is Where I Stand Chords & Tabs

 

This Is Where I Stand Chords & Tabs

Easyworld Chords & Tabs

Version: 1 Type: Tab 0 ratings
1 star 2 stars 3 stars 4 stars 5 stars
comments

This Is Where I Stand Tab

   
-------------------------------------------------------------------------------
			This is where I stand - easyworld
-------------------------------------------------------------------------------

Tabbed by:Matthew Gidman
Email:spaderman@onetel.com

Tuning:standard

 You can find this song on the album 'this is where I stand'. I am just going to
write out the chords when they come in with the lyrics (they won't all be fairly
seperated, but each chord I write is played for a bar) - you can pick up the
rhythm from the song or make one up. It is played with light distortion.

 It goes like this;

  [verse 1]
e|3------------------------5-------------------7----------2-------------3----|
B|3------------------------7-------------------8----------3-------------5----|
G|4------------------------7-------------------9----------4-------------5----|
D|5------------------------7-------------------9----------4-------------5----|
A|5------------------------5-------------------7----------2-------------3----|
E|3------------------------5-------------------7----------2-------------3----|
    The ache of a thousand nearly nothing like unrequited love, doesn't mean a
                      [verse 2]
e|3--------------3-----------------------5--------------7--------------------|
B|4--------------3-----------------------7--------------8--------------------|
G|5--------------4-----------------------7--------------9--------------------|
D|5--------------5-----------------------7--------------9--------------------|
A|3--------------5-----------------------5--------------7--------------------|
E|3--------------3-----------------------5--------------7--------------------|
  single fucking thing, 2.The ground has shifted crazy, this is where I
                                                      [chorus 1] 
e|2--------------------3-----3------------------3---3---3--------------------|
B|3--------------------5-----4------------------3---3---5--------------------|
G|4--------------------5-----5------------------4---4---5--------------------|
D|4--------------------5-----5------------------5---5---5--------------------|
A|2--------------------3-----3------------------5---5---3--------------------|
E|2--------------------3-----3------------------3---3---3--------------------|
  stand, and here I'll stay, it still feels the same      Theres no such
                                [verse 3]
e|5--------------3---3---3---3---3-----------5-----------------7-------------|
B|7--------------3---3---5---5---3-----------7-----------------8-------------|
G|7--------------4---4---5---5---4-----------7-----------------9-------------|
D|7--------------5---5---5---5---5-----------7-----------------9-------------|
A|5--------------5---5---3---3---5-----------5-----------------7-------------|
E|5--------------3---3---3---3---3-----------5-----------------7-------------|
  thing as guarantee-ee-ee-ee-ee  3.What I'd give for just one moments clarit-  
                                       [verse 4]
e|2----------3-------3-----------------3--------------5----------------------|
B|3----------5-------4-----------------3--------------7----------------------|
G|4----------5-------5-----------------4--------------7----------------------|
D|4----------5-------5-----------------5--------------7----------------------|
A|2----------3-------3-----------------5--------------5----------------------|
E|2----------3-------3-----------------3--------------5----------------------|
  y... I can trust     not to disappear, 4.its all I've ever wanted,   it's
[ Tab from: http://www.guitartabs.cc/tabs/e/easyworld/this_is_where_i_stand_tab.html ]
e|7-------------2-----------------3----------3------------------3---3--------|
B|8-------------3-----------------5----------4------------------3---3--------|
G|9-------------4-----------------5----------5------------------4---4--------|
D|9-------------4-----------------5----------5------------------5---5--------|
A|7-------------2-----------------3----------3------------------5---5--------|
E|7-------------2-----------------3----------3------------------3---3--------|
  What I tell myself, and call it faith, and think of something else
  [chorus 2]
e|3----------------5---------------3---3---3---3-------6---6-----------------|
B|5----------------7---------------3---3---5---5-------8---8-----------------|
G|5----------------7---------------4---4---5---5-------8---8-----------------|
D|5----------------7---------------5---5---5---5-------8---8-----------------|
A|3----------------5---------------5---5---3---3-------6---6-----------------|
E|3----------------5---------------3---3---3---3-------6---6-----------------|
   There's no such thing, as guarantee-ee-ee-ee or control  when it feels the 
                                 [verse 5]
e|3---3---3---3---3---3---3---3---3----------5-----------------7-------------|
B|3---3---5---5---3---3---5---5---3----------7-----------------8-------------|
G|4---4---5---5---4---4---5---5---4----------7-----------------9-------------|
D|5---5---5---5---5---5---5---5---5----------7-----------------9-------------|
A|5---5---3---3---5---5---3---3---5----------5-----------------7-------------|
E|3---3---3---3---3---3---3---3---3----------5-----------------7-------------|
  sa-a-a-a-a-me   sa-a-a-a-a-me  5.I woke up somewhere stupid, god what have I
                                         [verse 6]
e|2-----------3---------3--------------3-----------------------5-------------|
B|3-----------5---------4--------------3-----------------------7-------------|
G|4-----------5---------5--------------4-----------------------7-------------|
D|4-----------5---------5--------------5-----------------------7-------------|
A|2-----------3---------3--------------5-----------------------5-------------|
E|2-----------3---------3--------------3-----------------------5-------------|
  done? not a thing, no single fucking thing, 6.the ground has shifted crazy 

e|7---------------2--------------------3-----3------------------3---3--------|
B|8---------------3--------------------5-----4------------------3---3--------|
G|9---------------4--------------------5-----5------------------4---4--------|
D|9---------------4--------------------5-----5------------------5---5--------|
A|7---------------2--------------------3-----3------------------5---5--------|
E|7---------------2--------------------3-----3------------------3---3--------|
  this is where I stand, and here I'll stay, it still feels the same
  [chorus 3]
e|3----------------5--------------3---3---3---3-------6---6------------------|
B|5----------------7--------------3---3---5---5-------8---8------------------|
G|5----------------7--------------4---4---5---5-------8---8------------------|
D|5----------------7--------------5---5---5---5-------8---8------------------|
A|3----------------5--------------5---5---3---3-------6---6------------------|
E|3----------------5--------------3---3---3---3-------6---6------------------|
   There's no such thing as guarantee-ee-ee-ee or controll  when it feels the

e|3---3---3---3---3---3---3---3---3---3---3---3---3---3---3---3--------------|
B|3---3---5---5---3---3---5---5---3---3---5---5---3---3---5---5--------------|
G|4---4---5---5---4---4---5---5---4---4---5---5---4---4---5---5--------------|
D|5---5---5---5---5---5---5---5---5---5---5---5---5---5---5---5--------------|
A|5---5---3---3---5---5---3---3---5---5---3---3---5---5---3---3--------------|
E|3---3---3---3---3---3---3---3---3---3---3---3---3---3---3---3--------------|
  sa-a-a-a-a-me   sa-a-a-a-a-me   sa-a-a-a-a-me   sa-a-a-a-a-me

 And then the drums finish off the song.

It sounds alright to me. email me for any corrections, but I'm pretty sure
that all the chords are in the right key. The chords for the verses and choruses
are the same (except the extended bits on the end of choruses 2&3) - 
I found it easier (and I think it will be easier to read) to write out the whole
song and not just layers of lyrics underneath verse chords etc.
Comments