Easyworld - So Young So Freaky Chords & Tabs

 

So Young So Freaky Chords & Tabs

Easyworld Chords & Tabs

Version: 1 Type: Bass Tab 0 ratings
1 star 2 stars 3 stars 4 stars 5 stars
comments

So Young So Freaky Bass Tab

Band - Easyworld/Beachy Head
Song - So Young, So Freaky
Album - (boo hoo i wish)
Tabbed by - Rose (abadchoice@hotmail.com)

INTRO/VERSE
g ---------------------------!
d----------------------------!
a -----------2/33333-222-----!
e 33333333-------------------!

CHORUS INTRO
and noone gives a shit....
g -----------!
d -----------!
a 0-----0----!
e ----3------!

CHORUS
g --------------------------------!-----------------!
d --------------------------------!-55--77--99--77--!
a ------------22222222--33333333--!-----------------!
e 8/33333333----------------------!-----------------!
[ Tab from: http://www.guitartabs.cc/tabs/e/easyworld/so_young_so_freaky_btab.html ]
g ------------------------------!-----------------!
d ------------------------------!-11--33--11--00--!
a ----------22222222--33333333--!-----------------!
e 33333333----------------------!-----------------!

g ------------------------------!------------------!
d ------------------------------!-/55--77--99--9/--!
a ----------22222222--33333333--!------------------!
e 33333333----------------------!------------------!

g ------------------------------!-------------!
d ------------------------------!-------------!
a ----------22222222--33333333--!-33333333-(5)!
e 33333333----------------------!-------------!
The last note in brakets is played 2nd chorus (before bridge)

BRIDGE (X4)
g ---------------------------------!
d ---------------------------------!
a 66666666---------------55555555--!
e -----------666666666-------------!
After bridge play 1st 2 lines of chorus
Then play chorus from beginning
Comments