Easyworld - Lights Out Chords & Tabs

 

Lights Out Chords & Tabs

Easyworld Chords & Tabs

Version: 1 Type: Tab 0 ratings
1 star 2 stars 3 stars 4 stars 5 stars
comments

Lights Out Tab

song - lights out
artist - easyworld
album - better ways to self destruct
tabbed by - rose abadchoice@hotmail.com

main riff play each chord 8 times
e-------------------------------------------------
b-------------------------------------------------
g-(1)---------------------------------------------
d--2-------9-------6-------7----------------------
a--2-------9-------6-------7----------------------
E--0-------7-------4-------5----------------------
[ Tab from: http://www.guitartabs.cc/tabs/e/easyworld/lights_out_tab.html ]
chorus intro play each chord 8 times
e-------------------------------------------------
b-------------------------------------------------
g-------------------------------------------------
d--11-------9-------7-------9---------------------
a--11-------9-------7-------9---------------------
E--9--------7-------5-------7---------------------

bridge
e-------------------------------------------------
b-------------------------------------------------
g-------------------------------------------------
d-11-11---9--9---7-7---6--6-----------------------
a-11-11---9--9---7-7---6--6-----------------------
e-9--9----7--7---5-5---4--4-----------------------

notes
intro, verse and chorus - main riff
verse - no guitar for 1st half then main riff
Comments