Easyworld - Everyone Knows Chords & Tabs

 

Everyone Knows Chords & Tabs

Easyworld Chords & Tabs

Version: 1 Type: Bass Tab 0 ratings
1 star 2 stars 3 stars 4 stars 5 stars
comments

Everyone Knows Bass Tab

Song - Everyone Knows
Artist - Easyworld
B-side of Try Not to Think
Tabbed by - Rose (abadchoice@hotmail.com)

INTRO and BREAKS
g -------------------------------!
d -------------------------------!
a -0--3--4-4-4----------0-0-0----!
e -------------0--2--0--------4--!

no bass for half verse
[ Tab from: http://www.guitartabs.cc/tabs/e/easyworld/everyone_knows_btab.html ]
VERSE (x4)
g ---------------!
d ----2----------!
a -0--------5-4--!
e -------2-------!

CHORUS
g ----------------------------!
d ----------------------------!
a -0--3--4--4-----------0--2--!
e -------------0--2--4--------!

BRIDGE  (x4)
g -2---2-0---0-------------!
d -------------4---4-0--2--!
a -------------------------!
e -------------------------!

after bridge repeat chorus
Comments