Easyworld - Demons Chords & Tabs

 

Demons Chords & Tabs

Easyworld Chords & Tabs

Version: 1 Type: Bass Tab 0 ratings
1 star 2 stars 3 stars 4 stars 5 stars
comments

Demons Bass Tab

song - demons
artist - easyworld
album - this is where i stand
tabbed by - rose williams abadchoice@hotmail.com

hello kiddies. the verses are all very similar with slight variations. corrections, 
questions, email me.
great song, great band, have fun.

intro/chorus
g--------------------2----------------------------
d---------2--0--2--4------------------------------
a-0--2--4-----------------------------------------
e-------------------------------------------------

verse 1
g--------2-2-2------------------------------------
d---2-0--------0-0------------2-0-/12h11-12h11-7--
a-0----------------4----0-2-4---------------------
e-------------------------------------------------

g-------------------------------------------------
d-------0-0-0-0-----------------------------------
a-0---0---------4--2-2-2-4-4-5--------------------
e-------------------------------------------------
[ Tab from: http://www.guitartabs.cc/tabs/e/easyworld/demons_btab.html ]
verse 2
g--------2-2-2------------------------------------
d---2-0--------0-0-----------2-0-/12h11-12h11-7---
a-0----------------4---0-2-4----------------------
e-------------------------------------------------

g-------------------------------------------------
d-------2-0----0-0-0-0----------------------------
a-0-2-4------0---------4--2-2-2-4-4-5--------------
e-------------------------------------------------

verse 3
g-------2-2-2-------------------------------------
d---2-0-------0-0------------2-0-/12h11-12h11-7---
a-0---------------4----0-2-4----------------------
e-------------------------------------------------

g-------------------------------------------------
d-------2-0----0-0-0-0----------------------------
a-0-2-4------0---------4--2-2-2-4-5---------------
e-------------------------------------------------

bridge
g-------------------------------------------------
d-2-2-2-2--0-0-0-0--2-2-2-2--0-0-0-0--------------
a-------------------------------------------------
e-------------------------------------------------

outro (last chorus)
	play 3 times		then: 5 times
g-------------------------!---------------2-------
d-------------------------!-------2-0-2-4---------
a-0-2-4--2-5-5-5-5-5-5-4--!-0-2-4-----------------
e-------------------------!-----------------------
end on
a-0--->
Comments