Easyworld - Bleach Chords & Tabs

 

Bleach Chords & Tabs

Easyworld Chords & Tabs

Version: 1 Type: Tab 0 ratings
1 star 2 stars 3 stars 4 stars 5 stars
comments

Bleach Tab

----------------------------------------------------------------------
		        Bleach - Easyworld
----------------------------------------------------------------------

By: John O'Malley (original_prankster12@hotmail.com)

You play this song as distortion where i havn't indicated any type of playing. Enjoy!

Intro:

e|-------------------------------------------------------------------|
B|-------------------------------------------------------------------|
G|-5---5----x---x---x---x--------------5-----------------------------|
D|-5---5----x---x---x---x---X11--------5-----------------------------|
A|-3---3----x---x---x---x--------------3-----------------------------|
E|-------------------------------------------------------------------|

Verse:

e|-------------------------------------------------------------------|
B|-------------------------------------------------------------------|
G|-5---5----x---x---x---x----------------5---5----x--x--x--x---------|
D|-5---5----x---x---x---x----X16---------5---5----x--x--x--x-X16-----|
A|-3---3----x---x---x---x----------------3---3----x--x--x--x---------|
E|-------------------------------------------------------------------|
  |--------clean---------|                  

Bit before Chorus:

e|-------------------------------------------------------------------|
B|-------------------------------------------------------------------|
G|-5--- ~ -----------------------------------------------------------|
D|-5--- ~ ---------5--- ~ -------------------------------------------|
A|-3--- ~ ---------5--- ~ -------------------------------------------|
E|-----------------3--- ~ -------------------------------------------|

Chorus: (you can work out how many times to play each chord)
[ Tab from: http://www.guitartabs.cc/tabs/e/easyworld/bleach_tab.html ]
e|-------------------------------------------------------------------|
B|-------------------------------------------------------------------|
G|-5----------------7------------------------------------------------|
D|-5-------3--------7------5-----------------------------------------|
A|-5-------3--------5------5-----------------------------------------|
E|---------1---------------3-----------------------------------------|

Bit before solo:

e|-------------------------------------------------------------------|
B|-------------------------------------------------------------------|
G|-5---5---5---5-------5---------7---7---7---7-------7---------------|
D|-5---5---5---5-------5---------7---7---7---7-------7---------------|
A|-3---3---3---3-------3---------5---5---5---5-------5---------------|
E|-------------------------------------------------------------------|
  |-palm muted-|                |-palm muted-|
       

Chords for solo: (you can work out how many times to play each chord)

e|-------------------------------------------------------------------|
B|-------------------------------------------------------------------|
G|-5--------------7--------------------------------------------------|
D|-5------3-------7-------5------------------------------------------|
A|-3------3-------5-------5------------------------------------------|
E|--------1---------------3------------------------------------------|

End:

e|-------------------------------------------------------------------|
B|-------------------------------------------------------------------|
G|--------------5--- ~ ----------------------------------------------|
D|-5------------5--- ~ ----------------------------------------------|
A|-5-X16--------3--- ~ ----------------------------------------------|
E|-3-----------------------------------------------------------------|


======================================================================
Comments