Easyworld - Armistice Chords & Tabs

 

Armistice Chords & Tabs

Easyworld Chords & Tabs

Version: 1 Type: Bass Tab 0 ratings
1 star 2 stars 3 stars 4 stars 5 stars
comments

Armistice Bass Tab

Song - Armistice
Band - Easyworld
Album - This is where i stand
Tabbed by - Rose (abadchoice@hotmail.com)

INTRO
g------!------------------!------------------------------!
d------!-5--3--2----------!------------------------------!
a--0---!---------5--4--0--!--0--2--3-3-3-3-3--5-5-5-5-5--!
e------!------------------!------------------------------!

g-------------------------------!--------------------------------5-!
d--5h7--7--7--7--5--7--5--------!-5--5h7--7--7--7--5--7--5--5--5---!
a-------------------------7--7--!----------------------------------!
e-------------------------------!----------------------------------!
[ Tab from: http://www.guitartabs.cc/tabs/e/easyworld/armistice_btab.html ]
g--5h7--7--7--7--5--7--5--------!--4--5-5-5-5--7-7-7-7--!
d-------------------------7--7--!-----------------------!
a-------------------------------!-----------------------!
e-------------------------------!-----------------------!

g-------------------------------!
d--5h7--7--7--7--5--7--5--------!
a-------------------------7--7--!
e-------------------------------!

VERSE (play through 3 times)
g------------------------------5-!
d--5h7--7--7--7--5--7--5--5--5---!
a--------------------------------!
e--------------------------------!

g--5h7--7--7--7--5--7--5--------!--4--5-5-5-5--7-7-7-7--!
d-------------------------7--7--!-----------------------!
a-------------------------------!-----------------------!
e-------------------------------!-----------------------!

OUTRO
g------------------------!------------------------2>----!
d--7-7-7-7-7--5-5-5-5-5--!--3-3-3-3-3--5-5-5-5-5--------!
a------------------------!------------------------------!
e------------------------!------------------------------!
Comments