Easybeats - Friday On My Mind Chords & Tabs

 

Friday On My Mind Chords & Tabs

Easybeats Chords & Tabs

Version: 2 Type: Tab 0 ratings
1 star 2 stars 3 stars 4 stars 5 stars
comments

Friday On My Mind Tab

   
-------------------------------------------------------------
  THE EASYBEATS - FRIDAY ON MY MIND (Vanda/Young) First date 
                  of release: 1967
-------------------------------------------------------------
  Tabbed by:PJVillanueva



Monday morning feels so bad
Everybody seems to nag me
Coming Tuesday I feel better
Even my old man looks good
Wednesday just won't go
Thursday goes too slow
I got Friday on my mind
Gonna have fun in the city
Be with my girl she's so pretty
She looks fine tonight
She is outasight to me
Tonight I'll spend my bread
Tonight I'll lose my head
Tonight I got to get..
Tonight
Monday I'll have Friday on my mind
Do the five day grind once more
Know of nothing else that bugs me
More than working for the rich man
Hey I'll change that scene one day
Today I might be mad
Tomorrow I'll be glad
Coz I got Friday on my mind





  E
E|----------------|----------------|----------------|----------------|
B|----------------|----------------|----------------|----------------|
G|----------------|----------------|----------------|----------------|
D|--9---9---9---9-|--9---9---9---9-|--9---9---9---9-|--9---9---9---9-|
A|7---7---7---7---|7---7---7---7---|7---7---7---7---|7---7---7---7---|
E|----------------|----------------|----------------|----------------|
                                            Monday morning feels so bad

  A                                 E
E|----------------|----------------|----------------|----------------|
B|----------------|----------------|----------------|----------------|
G|----------------|----------------|----------------|----------------|
D|--7---7---7---7-|--7---7---7---9-|--9---9---9---9-|--9---9---9---9-|
A|----------------|5-------5-------|7---7---7---7---|7---7---7---7---|
E|5---5---5---5---|----5-------5---|----------------|----------------|
                                              Everybody  seems to   

  A                                 G
E|----------------|----------------|----------------|----------------|
B|----------------|----------------|----------------|----------------|
G|----------------|----------------|----------------|----------------|
D|--7---7---7---7-|--7---7---7-----|--5---5---5---5-|--5---5---5---5-|
A|----------------|5-------5-----5-|----------------|----------------|
E|5---5---5---5---|----5-------5---|3---3---3---3---|3---3---3---3---|
  nag              me                       Coming tuesday I feel 

  B                                 E
E|----------------|----------------|----------------|----------------|
B|----------------|----------------|----------------|----------------|
G|--4---3---2---1-|--0-------------|----------------|----------------|
D|----------------|------4---4---4-|--2---2---2---2-|--2---2---2---2-|
A|2---2---2---2---|2---2---2---2---|----------------|----------------|
E|----------------|----------------|0---0---0---0---|0---0---0---0---|
  better                                     Even my   old man looks 
E|----------------|----------------|----------------|----------------|
B|----------------|--9-----7-8-7---|----------------|----------------|
G|----------9---8-|--------------9-|7---------------|----------------|
D|--9---8---------|----------------|----------------|----------------|
A|----------------|----------------|----------------|----------------|
E|7---------------|----------------|----------------|----------------|


  Am                                A
E|----------------|----------------|----------------|----------------|
B|----------------|----------------|----------------|----------------|
G|--2---2---2---2-|--2---2---2---2-|--2---2---2---2-|--2---2---2---2-|
D|----------------|----------------|----------------|----------------|
A|0---0---0---0---|0---0---0---0---|0---0---0---0---|0---0---0---0---|
E|----------------|----------------|----------------|----------------|
    good                                     Wednesday just won't go
E|----------------|----------------|----------------|----------------|
B|----------------|5-6-5---5-------|----------------|----------------|
G|----------------|------7---7-5-4-|6---------------|----------------|
D|----------------|----------------|----------------|----------------|
A|----------------|----------------|----------------|----------------|
E|----------------|----------------|----------------|----------------|

E|----------------|----------------|----------------|----------------|
B|----------------|----------------|----------------|----------------|
G|----------------|----------------|--------2-3---3-|--6---6---------|


  Dm
E|----------------|----------------|----------------|----------------|
B|----------------|----------------|----------------|----------------|
G|--7---7---7---7-|--7---7---7---7-|--7---7---7---7-|--7---7---7---7-|
D|----------------|----------------|----------------|----------------|
A|5---5---5---5---|5---5---5---5---|5---5---5---5---|5---5---5---5---|
E|----------------|----------------|----------------|----------------|
         thursday goes too slow             I got friday   on    my
E|----------------|5-6-5---5-------|----------------|----------------|
B|----------------|------7---7-5-4-|5---------------|----------------|
G|----------------|----------------|----------------|----------------|
D|----------------|----------------|----------------|----------------|
A|----------------|----------------|----------------|----------------|
E|----------------|----------------|----------------|----------------|

E|----------------|----------------|----------------|----------------|
B|----------5---5-|--6---6---------|--------6-8---8-|--9---9---8-----|
G|--------7-------|----------------|----------------|----------------|



  C       E        A   F#  B   E7   A
E|0-------0-------|5---2---7---0---|5---5-5-5---5-5-|5---5-5-5---5---|
B|1-------0-------|5---2---7---5---|5---5-5-5---5-5-|5---5-5-5---5---|
G|0-------1-------|6---3---8---7---|6---6-6-6---6-6-|6---6-6-6---6---|
D|2-------2-------|7---4---9---6---|7---7-7-7---7-7-|7---7-7-7---7---|
A|3-------2-------|7---4---9---7---|7---7-7-7---7-7-|7---7-7-7---7---|
E|3-------0-------|5---2---7---0---|5---------------|----------------|
  mind                                      Goona have fun   in  the 

  Ebm                               A
E|4---4-4-4-4-4---|4---4-4-4-4-4-55|5---5-------5---|----5-------5---|
B|5---5-5-5-5-5---|5---5-5-5-5-5-55|5---5-------5---|----5-------5---|
G|6---6-6-6-6-6---|6---6-6-6-6-6-66|6---6-------6---|----6-------6---|
D|6---6-6-6-6-6---|6---6-6-6-6-6-77|7---7-------7---|----7-------7---|
A|4---4-4-4-4-4---|4---4-4-4-4-4-77|7---7-------7---|----7-------7---|
E|----------------|--------------55|5---5-------5---|----5-------5---|
  city                                      Be with my girl she's so
E|----------------|----------------|----------------|----------------|
B|----------------|2-3-2---2-------|----------------|----------------|
G|----------------|------4---4-2-1-|2---------------|----------------|
D|----------------|----------------|----------------|----------------|
A|----------------|----------------|----------------|----------------|
E|----------------|----------------|----------------|----------------|


  Ebm                               D                              F#
E|----4-------4---|4-4---4--4--4---|2---2-2-2---2-2-|2-2---2---2-2-2-|
B|----5-------5---|5-5---5--5--5---|3---3-3-3---3-3-|3-3---3---3-3-2-|
G|----6-------6---|6-6---6--6--6---|2---2-2-2---2-2-|2-2---2---2-2-3-|
D|----6-------6---|6-6---6--6--6---|0---0-0-0---0-0-|0-0---0---0-0-4-|
A|----4-------4---|4-4---4--4--4---|----------------|--------------4-|
E|----------------|----------------|----------------|--------------2-|
  pretty                                    She looks fine tonight        
E|----------------|----------------|----------------|----------------|
B|----------------|2-3-2---2-------|----------------|----------------|
G|----------------|------4---4-2-1-|2---------------|----------------|
D|----------------|----------------|----------------|----------------|
A|----------------|----------------|----------------|----------------|
E|----------------|----------------|----------------|----------------|


    F#7                             Bm
E|2-2-2-2-2-2-2-2-|2-2-2-2-2-2-2---|2-2-2-2-2-2-2-2-|2-2-2-2-2-2-2---|
B|5-5-5-5-5-5-5-5-|5-5-5-5-5-5-5---|3-3-3-3-3-3-3-3-|3-3-3-3-3-3-3---|
G|3-3-3-3-3-3-3-3-|3-3-3-3-3-3-3---|4-4-4-4-4-4-4-4-|4-4-4-4-4-4-4---|
D|2-2-2-2-2-2-2-2-|2-2-2-2-2-2-2---|4-4-4-4-4-4-4-4-|4-4-4-4-4-4-4---|
A|4-4-4-4-4-4-4-4-|4-4-4-4-4-4-4---|2-2-2-2-2-2-2-2-|2-2-2-2-2-2-2---|
E|2-2-2-2-2-2-2-2-|2-2-2-2-2-2-2---|----------------|----------------|
         She is  outasight     to   me                          
                                                                (Tonight
  D                                 A
E|5-5-5-5-5-5-5-5-|5-5-5-5-5-5-5---|5-5-5-5-5-5-5-5-|5-5-5-5-5-5-5---|
B|7-7-7-7-7-7-7-7-|7-7-7-7-7-7-7---|5-5-5-5-5-5-5-5-|5-5-5-5-5-5-5---|
G|7-7-7-7-7-7-7-7-|7-7-7-7-7-7-7---|6-6-6-6-6-6-6-6-|6-6-6-6-6-6-6---|
D|0-0-0-0-0-0-0--0|0-0-0-0-0-0-0---|7-7-7-7-7-7-7-7-|7-7-7-7-7-7-7---|
A|----------------|----------------|7-7-7-7-7-7-7-7-|7-7-7-7-7-7-7---|
E|----------------|----------------|5-5-5-5-5-5-5-5-|5-5-5-5-5-5-5---|
           I'll   spend my bread              I'll   lose my head
                                Tonight                            Tonight

  D                                 A
E|10--101010101010|10101010101010--|5-5-5-5-5-5-5-5-|5-5-5-5-5-5-5-5-|
B|10--101010101010|10101010101010--|5-5-5-5-5-5-5-5-|5-5-5-5-5-5-5-5-|
G|11--111111111111|11111111111111--|6-6-6-6-6-6-6-6-|6-6-6-6-6-6-6-6-|
D|12--121212121212|12121212121212--|7-7-7-7-7-7-7-7-|7-7-7-7-7-7-7-7-|
A|12--121212121212|12121212121212--|7-7-7-7-7-7-7-7-|7-7-7-7-7-7-7-7-|
E|10--101010101010|10101010101010--|5-5-5-5-5-5-5-5-|5-5-5-5-5-5-5-5-|
               I   got to get  tonight

  E7                                Am               Dsus2
E|0-0-0-0-0-0-0-0-|0-0-0-0-0-0-0-0-|0---------------|0---------------|
B|5-5-5-5-5-5-5-5-|5-5-5-5-5-5-5-5-|1---------------|3---------------|
G|7-7-7-7-7-7-7-7-|7-7-7-7-7-7-7-7-|2---------------|2---------------|
D|6-6-6-6-6-6-6-6-|6-6-6-6-6-6-6-6-|2---------------|0---------------|
A|7-7-7-7-7-7-7-7-|7-7-7-7-7-7-7-7-|0---------------|----------------|
E|----------------|----------------|----------------|----------------|
                                    Monday I'll have friday on my mind

  G                E7
E|----------------|0---------------|
B|0---------------|3---------------|
G|0---------------|1---------------|
D|0---------------|2---------------|
A|----------------|2---------------|
E|3---------------|0---------------|
  mind                                    

  E
E|----------------|----------------|----------------|----------------|
B|----------------|----------------|----------------|----------------|
G|----------------|----------------|----------------|----------------|
D|--9---9---9---9-|--9---9---9---9-|--9---9---9---9-|--9---9---9---9-|
A|7---7---7---7---|7---7---7---7---|7---7---7---7---|7---7---7---7---|
E|----------------|----------------|----------------|----------------|
                                           Do the five day grind once 

  A                                 E
E|----------------|----------------|----------------|----------------|
B|----------------|----------------|----------------|----------------|
G|----------------|----------------|----------------|----------------|
D|--7---7---7---7-|--7---7---7---9-|--9---9---9---9-|--9---9---9---9-|
A|----------------|5-------5-------|7---7---7---7---|7---7---7---7---|
E|5---5---5---5---|----5-------5---|----------------|----------------|
  more                                    Know of nothing else that bugs
[ Tab from: http://www.guitartabs.cc/tabs/e/easybeats/friday_on_my_mind_tab_ver_2.html ]
  A                                 G
E|----------------|----------------|----------------|----------------|
B|----------------|----------------|----------------|----------------|
G|----------------|----------------|----------------|----------------|
D|--7---7---7---7-|--7---7---7---7-|--5---5---5---5-|--5---5---5---5-|
A|----------------|5-------5-----5-|----------------|----------------|
E|5---5---5---5---|----5-------5---|3---3---3---3---|3---3---3---3---|
  me                                      More than working for the rich 

  B                                 E                                   
E|----------------|----------------|----------------|----------------|
B|----------------|----------------|----------------|----------------|
G|--4---3---2---1-|--0-------4---4-|----------------|----------------|
D|----------------|------4---------|--2---2---2---2-|--2---2---2---2-|
A|2---2---2---2---|2---2---2---2---|----------------|----------------|
E|----------------|----------------|0---0---0---0---|0---0---0---0---|
  man                                    Hey, I'll change that sceene one
E|----------------|----------------|----------------|----------------|
B|----------------|--9-----7-8-7---|----------------|----------------|
G|----------9---8-|--------------9-|7---------------|----------------|
D|--9---8---------|----------------|----------------|----------------|
A|----------------|----------------|----------------|----------------|
E|7---------------|----------------|----------------|----------------|


  Am                                A
E|----------------|----------------|----------------|----------------|
B|----------------|----------------|----------------|----------------|
G|--2---2---2---2-|--2---2---2---2-|--2---2---2---2-|--2---2---2---2-|
D|----------------|----------------|----------------|----------------|
A|0---0---0---0---|0---0---0---0---|0---0---0---0---|0---0---0---0---|
E|----------------|----------------|----------------|----------------|
  day
E|----------------|----------------|----------------|----------------|
B|----------------|5-6-5---5-------|----------------|----------------|
G|----------------|------7---7-5-4-|6---------------|----------------|
D|----------------|----------------|----------------|----------------|
A|----------------|----------------|----------------|----------------|
E|----------------|----------------|----------------|----------------|
                                         Today I might be mad
E|----------------|----------------|----------------|----------------|
B|----------------|----------------|----------------|----------------|
G|----------------|----------------|--------2-3---3-|--6---6---------|
      



  Dm
E|----------------|----------------|----------------|----------------|
B|----------------|----------------|----------------|----------------|
G|--7---7---7---7-|--7---7---7---7-|--7---7---7---7-|--7---7---7---7-|
D|----------------|----------------|----------------|----------------|
A|5---5---5---5---|5---5---5---5---|5---5---5---5---|5---5---5---5---|
E|----------------|----------------|----------------|----------------|
        tomorrow I'll be glad           'cos I got friday on my
E|----------------|5-6-5---5-------|----------------|----------------|
B|----------------|------7---7-5-4-|5---------------|----------------|
G|----------------|----------------|----------------|----------------|
D|----------------|----------------|----------------|----------------|
A|----------------|----------------|----------------|----------------|
E|----------------|----------------|----------------|----------------|

E|----------------|----------------|----------------|----------------|
B|----------5---5-|--6---6---------|--------6-8---8-|--9---9---8-----|
G|--------7-------|----------------|----------------|----------------|
        

  C       E        A   F#  B   E7   A
E|0-------0-------|5---2---7---0---|5---5-5-5---5-5-|5---5-5-5---5---|
B|1-------0-------|5---2---7---5---|5---5-5-5---5-5-|5---5-5-5---5---|
G|0-------1-------|6---3---8---7---|6---6-6-6---6-6-|6---6-6-6---6---|
D|2-------2-------|7---4---9---6---|7---7-7-7---7-7-|7---7-7-7---7---|
A|3-------2-------|7---4---9---7---|7---7-7-7---7-7-|7---7-7-7---7---|
E|3-------0-------|5---2---7---0---|5---------------|----------------|
  mind                                 I'm gonna have fun    in the   

  Dbm                               A
E|4---4-4-4-4-4---|4-4---4---4-4---|5---5-5---5-5-5-|5---5-5-5-5-5---|
B|5---5-5-5-5-5---|5-5---5---5-5---|5---5-5---5-5-5-|5---5-5-5-5-5---|
G|6---6-6-6-6-6---|6-6---6---6-6---|6---6-6---6-6-6-|6---6-6-6-6-6---|
D|6---6-6-6-6-6---|6-6---6---6-6---|7---7-7---7-7-7-|7---7-7-7-7-7---|
A|4---4-4-4-4-4---|4-4---4---4-4---|7---7-7---7-7-7-|7---7-7-7-7-7---|
E|----------------|----------------|5---5-5---5-5-5-|5---5-5-5-5-5---|
  city                                      Be with my girl she's so 
E|----------------|----------------|----------------|----------------|
B|----------------|2-3-2---2-------|----------------|----------------|
G|----------------|------4---4-2-1-|2---------------|----------------|
D|----------------|----------------|----------------|----------------|
A|----------------|----------------|----------------|----------------|
E|----------------|----------------|----------------|----------------| 

  Dbm                               D
E|4---4-4-4---4---|4---4-4--4--4---|2---2-2-2---2-2-|2-2-2-2---2-2---|
B|5---5-5-5---5---|5---5-5--5--5---|3---3-3-3---3-3-|3-3-3-3---3-2---|
G|6---6-6-6---6---|6---6-6--6--6---|2---2-2-2---2-2-|2-2-2-2---2-3---|
D|6---6-6-6---6---|6---6-6--6--6---|0---0-0-0---0-0-|0-0-0-0---0-4---|
A|4---4-4-4---4---|4---4-4--4--4---|----------------|------------4---|
E|----------------|----------------|----------------|------------2---|
  pretty                                She looks fine tonight
E|----------------|----------------|----------------|----------------|
B|----------------|2-3-2---2-------|----------------|----------------|
G|----------------|------4---4-2-1-|2---------------|----------------|
D|----------------|----------------|----------------|----------------|
A|----------------|----------------|----------------|----------------|
E|----------------|----------------|----------------|----------------|             

  F#7                               Bm
E|2-2-2-2-2-2-2-2-|2-2-2-2-2-2-2---|2---2-2-2-2-2-2-|2-2-2-2-2-2-2---|
B|5-5-5-5-5-5-5-5-|5-5-5-5-5-5-5---|3---3-3-3-3-3-3-|3-3-3-3-3-3-3---|
G|3-3-3-3-3-3-3-3-|3-3-3-3-3-3-3---|4---4-4-4-4-4-4-|4-4-4-4-4-4-4---|
D|2-2-2-2-2-2-2-2-|2-2-2-2-2-2-2---|4---4-4-4-4-4-4-|4-4-4-4-4-4-4---|
A|4-4-4-4-4-4-4-4-|4-4-4-4-4-4-4---|2---2-2-2-2-2-2-|2-2-2-2-2-2-2---|
E|2-2-2-2-2-2-2-2-|2-2-2-2-2-2-2---|----------------|----------------|
        She is outasight        to  me          
                                                                (tonight
  D                                 A
E|5-5-5-5-5-5-5-5-|5-5-5-5-5-5-5---|5-5-5-5-5-5-5-5-|5-5-5-5-5-5-5---|
B|7-7-7-7-7-7-7-7-|7-7-7-7-7-7-7---|5-5-5-5-5-5-5-5-|5-5-5-5-5-5-5---|
G|7-7-7-7-7-7-7-7-|7-7-7-7-7-7-7---|6-6-6-6-6-6-6-6-|6-6-6-6-6-6-6---|
D|0-0-0-0-0-0-0--0|0-0-0-0-0-0-0---|7-7-7-7-7-7-7-7-|7-7-7-7-7-7-7---|
A|----------------|----------------|7-7-7-7-7-7-7-7-|7-7-7-7-7-7-7---|
E|----------------|----------------|5-5-5-5-5-5-5-5-|5-5-5-5-5-5-5---|
           I'll   spend my bread              I'll   lose my head
                                Tonight                            Tonight
  D                                 A
E|10--101010101010|10101010101010--|5---5-5-5-5-5-5-|5-5-5-5-5-5-5-5-|
B|10--101010101010|10101010101010--|5---5-5-5-5-5-5-|5-5-5-5-5-5-5-5-|
G|11--111111111111|11111111111111--|6---6-6-6-6-6-6-|6-6-6-6-6-6-6-6-|
D|12--121212121212|12121212121212--|7---7-7-7-7-7-7-|7-7-7-7-7-7-7-7-|
A|12--121212121212|12121212121212--|7---7-7-7-7-7-7-|7-7-7-7-7-7-7-7-|
E|10--101010101010|10101010101010--|5---------------|----------------|
               I   got to get  tonight

  E7                                Am               Dsus2
E|0-0-0-0-0-0-0-0-|0-0-0-0-0-0-0-0-|0---------------|0---------------|
B|5-5-5-5-5-5-5-5-|5-5-5-5-5-5-5-5-|1---------------|3---------------|
G|7-7-7-7-7-7-7-7-|7-7-7-7-7-7-7-7-|2---------------|2---------------|
D|6-6-6-6-6-6-6-6-|6-6-6-6-6-6-6-6-|2---------------|0---------------|
A|7-7-7-7-7-7-7-7-|7-7-7-7-7-7-7-7-|0---------------|----------------|
E|----------------|----------------|----------------|----------------|
                                    Monday I'll have friday on my mind
E|----------------|----------------|----------------|----------------|
B|----------------|----------------|----------------|----------------|
G|----------------|----------------|----------------|----------------|
D|----------------|----------------|----------------|----------------|
A|----------------|----------------|0-------0-------|0-------0-------|
E|----------------|----------------|----0-------0---|----0-------0---| 



  G                E7
E|----------------|0---------------|----------------|
B|0---------------|3---------------|----------------|
G|0---------------|1---------------|----------------|
D|0---------------|2---------------|----------------|
A|----------------|2---------------|----------------|
E|3---------------|0---------------|----------------|
  mind                                    
E|----------------|----------------|----------------|
B|----------------|----------------|----------------|
G|----------------|----------------|----------------|
D|----------------|----------------|----------------|
A|0-------0-------|----------------|----------------|
E|----0-------0---|0---------------|----------------| 




                                   Coda

                                   *
                                   |5---5-5-5---5-5-|5---5-5-5---5---|
                                   |5---5-5-5---5-5-|5---5-5-5---5---|
                                   |6---6-6-6---6-6-|6---6-6-6---6---|
                                   |7---7-7-7---7-7-|7---7-7-7---7---|
                                   |7---7-7-7---7-7-|7---7-7-7---7---|
                                   |5---5-5-5---5-5-|5---5-5-5---5---|
                                         I'm gonna have fun  in  the   


E|4---4-4-4-4-4---|4-4---4---4-4---|5---5-5---5-5-5-|5---5-5-5-5-5---|
B|5---5-5-5-5-5---|5-5---5---5-5---|5---5-5---5-5-5-|5---5-5-5-5-5---|
G|6---6-6-6-6-6---|6-6---6---6-6---|6---6-6---6-6-6-|6---6-6-6-6-6---|
D|6---6-6-6-6-6---|6-6---6---6-6---|7---7-7---7-7-7-|7---7-7-7-7-7---|
A|4---4-4-4-4-4---|4-4---4---4-4---|7---7-7---7-7-7-|7---7-7-7-7-7---|
E|----------------|----------------|5---5-5---5-5-5-|5---5-5-5-5-5---|
  city                                   I'll Be with my girl she's so 
E|----------------|----------------|----------------|----------------|
B|----------------|2-3-2---2-------|----------------|----------------|
G|----------------|------4---4-2-1-|2---------------|----------------|
D|----------------|----------------|----------------|----------------|
A|----------------|----------------|----------------|----------------|
E|----------------|----------------|----------------|----------------| 


E|----4-------4---|4---4-4--4--4---|
B|----5-------5---|5---5-5--5--5---|
G|----6-------6---|6---6-6--6--6---|
D|----6-------6---|6---6-6--6--6---|
A|----4-------4---|4---4-4--4--4---|
E|----------------|----------------|       
  pretty                               
E|----------------|----------------|--
B|----------------|2-3-2---2-------|--
G|----------------|------4---4-2-1-|2-
D|----------------|----------------|--
A|----------------|----------------|--
E|----------------|----------------|--  * Repeat and fade 



        B  Bend
        R  Release
        /  slide up
        \  slide down
        H  hammer-on
        P  pull-off
        ~  vibrato
        +  harmonic
        x  Mute note
        . - play note like a dot in standard notation
        ^ - ties two notes together
Comments