Eastern Lane - Feed Your Addiction Chords & Tabs

 

Feed Your Addiction Chords & Tabs

Eastern Lane Chords & Tabs

Version: 1 Type: Bass Tab 0 ratings
1 star 2 stars 3 stars 4 stars 5 stars
comments

Feed Your Addiction Bass Tab

   
Eastern Lane
Feed Your Addiction

Riff A

G: ---------------------------------|
D: ---------------------------------|
A: -7-7--5-7-7--5-7-7--5-7--3/5-7---|
E: ---------------------------------|

Riff B

G: ---------------------------------|
D: ---------------------------------|
A: -7-7--5-7-7-5-7-7-5-7-5---5---|
E: ---------------------------7-----|

Riff C

G: ---------------------------------    (7-7-| = only play
D: ------------------------------------------|    when starting riff
A: -(7-7)---7-7-7---7-7-7---7-7-7------------|
G: ------------------------------------------|

Riff D

G: ---------------------------------|
D: ---------------------------------|
A: ---------------------------------|
E: -9-9-9-9-9-9-9-9-9-7-7-7-7-7-7-7-|

Riff E
[ Tab from: http://www.guitartabs.cc/tabs/e/eastern_lane/feed_your_addiction_btab.html ]
G:-------------------|
D:-------------------|
A:--------5---7------|
E:----7--------------|


Riff A x2
Riff B x1
Riff A x1
Riff B x1
Riff A x1

Riff C UNTIL CHORUS
Riff D x2
Riff C UNTIL CHORUS
Riff D x2
Riff C UNTIL CHORUS
Riff D x2
Riff C UNTIL CHORUS
Riff D x2

Riff A x2
Riff D x2
Riff C UNTIL CHORUS
Riff D x2
Riff C UNTIL CHORUS
Riff D x2
Riff E x2
Riff A x2

Riff B x3 Solo
Riff A x1
Riff B x1
Riff A x1
Riff B x1
Riff A x3
Riff C UNTIL CHORUS
Riff D x2
Riff C UNTIL CHORUS
Riff D x2


The order of riffs may look quite hard but its really easy to pick up.

First Tab, so be nice.

Phil Guy
Comments