East West - Great Facade Chords & Tabs

 

Great Facade Chords & Tabs

East West Chords & Tabs

Version: 1 Type: Tab 0 ratings
1 star 2 stars 3 stars 4 stars 5 stars
comments

Great Facade Tab

The Great Facade
by East West
c2004 Floodgate Records

drop b tuning

Intro/Verses

Riff 1

C#--------------------------------|
G#--------------------------------|
E---------------------------------|
B---------------------------------|
F#-5/7stop-7/5--5--8--10--10/12---|
B--0-0-----0-0--0--0--0---0--0----|

You do this several times then...

Riff 2

C#----------------|
G#----------------|
E-----------------|
B-----------------|
F#-13-13-13-8-5---|
B--0--0--0--0-0---|

Repeat

Chorus
[ Tab from: http://www.guitartabs.cc/tabs/e/east_west/great_facade_tab.html ]
C#-----------------------------------------------------------------------|
G#-----------------------------------------------------------------------|
E------------------------12--14--14--------------------------------------|
B---0--0--0--0--0--0--0--x---x---x---3-3-3-7-7-7-7-7-7-7-3-3-5-5-5-5-----|
F#--0--0--0--0--0--0--0--10--12--12--3-3-3-7-7-7-7-7-7-7-3-3-5-5-5-5-----|
B---0--0--0--0--0--0--0--------------3-3-3-7-7-7-7-7-7-7-3-3-5-5-5-5-----|

The second verse is just Riff 1 several times.

Bridge(thanks to CarpeNoctum)

Pt. 1(P.M. ed)

C#--------------------------------------------|
G#--------------------------------------------|
E---------------------------------------------|
b |--0-7-8-0-8-10-0-10-12-0-10-12-13-0-13-12--|
F#|-------------------------------------------|
B |-------------------------------------------|

Pt. 2

C#--------------------------------------------|
G#--------------------------------------------|
E---------------------------------------------|
B |--0-7-8-0-8-10-0-10-12-0-10-12-13-0-13-12--|
F#|--0-7-8-0-8-10-0-10-12-0-10-12-13-0-13-12--|
B |--0-7-8-0-8-10-0-10-12-0-10-12-13-0-13-12--|

Solo

C#-----------------------------|
G#-----------------------------|
E------------------------------|
B------------------------------|
F#--12---15--12---10--9--7--5--|
B------------------------------|

There you go...
Comments