Earth Wind And Fire - Fantasy Chords & Tabs

 

Fantasy Chords & Tabs

Earth Wind And Fire Chords & Tabs

Version: 1 Type: Bass Tab 0 ratings
1 star 2 stars 3 stars 4 stars 5 stars
comments

Fantasy Bass Tab

Earth, Wind and Fire - Fantasy (bass)

intro= 8x
E|----------------------|
A|-----2-2--0-2----0-2--|
D|-2-0----------0-------|
G|----------------------|

verse=
E|-------------------------------------------------------------------|
A|-0---0----0-2---2----0-3---3-----0-5---5----0-3---3----0-5---5-----|
D|-------------------------------------------------------------------|
G|---2---2------4---4------5---5-------7---7------5---5------7---7---|

------------------------|       --------------------|
-0-7---7----0-7----7----|       -2--2-2--222--2-2---|
------------------------|       --------------------|
-----9---9-------9---9--| verse+--------------------|

chorus=
E|--------------------------------------|
A|---2-2---------------5-5--------------|
D|-2------4-4-4---5-5-------5-5---5-5-4-|
G|--------------------------------------|

E|--------------------------------------|2nd chorus>|----------------|
A|---2-2----4-4--------5-5--------------|	    |----------------|
D|-2------4-------5-5-------5-----8h5-4-|	    |-5-5--5-5--5--4-|
G|--------------------------------------|	    |--4----4----4---|
[ Tab from: http://www.guitartabs.cc/tabs/e/earth_wind_and_fire/fantasy_btab.html ]
E|--------------------------------------------------|
A|---2-2----4-4------------------0-2-2-2-2----2-2-2-|
D|-2------4-------5-5--5-5--5-5---------------------|
G|-----------------------------------------54-------|

intro 4x

verse+
---------------------|       ------------------|
-0--7---7-----7---7--|       -0-2---2--0-2---2-|
---------------------|       ------------------|
------9-----9---9----| verse+-----4--------4---|

chorus

come to see... part=
E|----------------------------------------------------------------------|
A|-7--7-7--0--0-0--5--5-5--------32----2--3--3-3--0--0-0--1--1-1--2-2-2-|
D|------------------------55-0-5----------------------------------------|
G|-----------------------------------4----------------------------------|

intro 2x

E|----------------------|
A|-0-2-2-2-2-02-2--2-02-|
D|----------------------|
G|----------------4-----|

2x come to see... part + A|-2--2-2-|

bridge
E|---------------------
A|------------5-5--5-5-
D|--4-4--2-2-----------
G|---------------------

outro
----------------------------------------------------------------------------------------------|
---------3--3-3----------1--1-1---5--5-5--6--6-6--3--3-3--4--4-4--5--5-5--3--3-3--1--1-1--6-5-|
-5--5-5----------3--3-3-----------------------------------------------------------------------|
----------------------------------------------------------------------------------------------|

tabbed by dION (kantongerecht@hotmail.com)
Comments