Early November - Sunday Drive Chords & Tabs

 

Sunday Drive Chords & Tabs

Early November Chords & Tabs

Version: 3 Type: Tab 0 ratings
1 star 2 stars 3 stars 4 stars 5 stars
comments

Sunday Drive Tab

this is a beautiful song by the early november. personally, ace enders is one of my
top vocalists/songwriters. this is my first official tab. i'm proud of it, and i'm
glad you're using it. i know this is correct because i watched ace play it, and i
was taking mental notes. so have fun. *smiles stupidly


*

intro/verse:
e|--------------------------------------|
b|--------------------------------------|
g|--7-7-7-7-7-7-7-7--7-7-7-7-7-7-7-7-7--|
d|--7-7-7-7-7-7-7-7--7-7-7-7-7-7-7-7-7--|
a|--0-0-0-0-0-0-0-0--5-5-5-5-5-5-5-5-5--|
e|--x-x-x-x-x-x-x-0--5-5-5-5-5-5-5-5-5--|

play that twice for the intro, and keep repeating it for the verses.

chorus:
e|------------------------------------------------------------|
b|------------------------------------------------------------|
g|--7-7-7-7-7-7-7-7-7-7-7-7-7-7--7-7-7-7-7-7-7-7-7-7-7-7-7-7--|
d|--7-7-7-7-7-7-7-7-7-7-7-7-7-7--7-7-7-7-7-7-7-7-7-7-7-7-7-7--|
a|--5-5-5-5-5-5-5-5-5-5-5-5-5-5--7-7-7-7-7-7-7-7-7-7-7-7-7-7--|
e|--0-0-0-0-0-0-0-0-0-0-0-0-0-0--0-0-0-0-0-0-0-0-0-0-0-0-0-0--|

e|------------------------------------------------------------|
b|------------------------------------------------------------|
g|--7-7-7-7-7-7-7-7-7-7-7-7-7-7-7-7-7-7-7-7-7-7-7-7-7-7-7-7---|
d|--7-7-7-7-7-7-7-7-7-7-7-7-7-7-7-7-7-7-7-7-7-7-7-7-7-7-7-7---|
a|--5-5-5-5-5-5-5-5-5-5-5-5-5-5-5-5-5-5-5-5-5-5-5-5-5-5-5-5---|
e|--5-5-5-5-5-5-5-5-5-5-5-5-5-5-5-5-5-5-5-5-5-5-5-5-5-5-5-5---|

play this once before the chorus, and then proceed to play it twice for the chorus.
then repeat the intro/verse and chorus again.
[ Tab from: http://www.guitartabs.cc/tabs/e/early_november/sunday_drive_tab_ver_3.html ]
bridge:
e|----------------------------------------------------------------|
b|----------------------------------------------------------------|
g|--7-7-7-7-7-7-7-7-7-7-7-7--7-7-7-7-7-7-7-7-7-7-7-7--------------|
d|--7-7-7-7-7-7-7-7-7-7-7-7--7-7-7-7-7-7-7-7-7-7-7-7--------------|
a|--5-5-5-5-5-5-5-5-5-5-5-5--0-0-0-0-0-0-0-0-0-0-0-0--------------|
e|--5-5-5-5-5-5-5-5-5-5-5-5--7-7-7-7-7-7-7-7-7-7-7-7--------------|

e|----------------------------------------------------------------|
b|----------------------------------------------------------------|
g|----------------------------------------------------------------|
d|--7-7-7-7-7-7-7-7-7-7-7-7--7--7--7--7--7--7--7--7--7--7--7--7---|
a|--0-0-0-0-0-0-0-0-0-0-0-0--0--0--0--0--0--0--0--0--0--0--0--0---|
e|--9-9-9-9-9-9-9-9-9-9-9-9--11-11-11-11-11-11-11-11-11-11-11-11--|

play this five times for the bridge. 

end on:
e|-----|
b|-----|
g|--7--|
d|--7--|
a|--5--|
e|--5--|

intro/verse
chorus
intro/verse
chorus
bridge

lyrics:
-VERSE1-
and we wait above a road
we're turning to go home
and the silence from the side of the car
tells me everything
and how we are
is there no more trying to make this all right?
there's no more trying tonight

-CHORUS-
and you know it's not so easy when you're all alone
and i wonder if i'm alone in your head

-VERSE2-
i know something is wrong
i just don't know what to do
you say it's only me
and that i'm so perfect for you
i don't want to try no more
i don't want to make this right
i just want you to be true to me
one time

-CHORUS-
and you know it's not so easy when you're all alone
and i wonder if i'm alone in your head

-BRIDGE-
twelve days gone by since i have saw you last
i'll give this one more try
i'll give it all my best
and i'll ask what could you be doing that is so much fun
without me by your side
without me by your side
and i will take a step back
and i'll let you ahead
and i will take a step away and see if you come back
because there's no more trying to make this all right
there's no more trying
there's no more trying tonight
we'll never be the same
we will never be the same
we will never be the same 
we will never be the same until you're done



that is all folks, and i hope you enjoy it.
Comments