Early November - Sunday Drive Chords & Tabs

 

Sunday Drive Chords & Tabs

Early November Chords & Tabs

Version: 1 Type: Tab 0 ratings
1 star 2 stars 3 stars 4 stars 5 stars
comments

Sunday Drive Tab

Early November - Sunday Drive

verse
e-------------------------------------------------------------|
B-------------------------------------------------------------|
G--7-----7----------------------------------------------------|
D--7-----7----------------------------------------------------|
A--5(8)--5(8)-------------------------------------------------|
D--------5----------------------------------------------------|
[ Tab from: http://www.guitartabs.cc/tabs/e/early_november/sunday_drive_tab.html ]
chorus
e----------------------------------------------------|
B----------------------------------------------------|
G--7-----7-----7-------------------------------------|
D--7-----7-----7-------------------------------------|
A--5-(8)-7-(8)-5-------------------------------------|
D--------------5-(8)---------------------------------|

end
e------------------------------------------------------------------|
B------------------------------------------------------------------|
G--7------7--------------------------------------------------------|
D--7------7------9------9------------------------------------------|
A--5------x------9------9------------------------------------------|
D--5-(8)--7-(8)--9-(8)--11-(8)-------------------------------------|
Comments