Early November - Sesame Smeshame Chords & Tabs

 

Sesame Smeshame Chords & Tabs

Early November Chords & Tabs

Version: 3 Type: Tab 0 ratings
1 star 2 stars 3 stars 4 stars 5 stars
comments

Sesame Smeshame Tab

felicia - blondy11932@hotmail.com
post comments or corrections or email me

tuning: drop d
h= hammer on    b=bend     r=ring

*INTRO:
guitar 1:
|----------|
|----------|
|-4--------|
|-4-(x8)---|
|-2--------|
|----------|

*VERSE:
|------------------------------------|
|------------------------------------|
|-4--------4--------4--------4-------|  
|-4-(x8)---4-(x8)---4-(x8)---4-(x8)--|
|-2--------1--------2--------x-------|  x4
|-------------------2--------4-------|
(last time play last chord once and let ring)


guitar 2:
(come in after verse has been played x1)
|----------------------------------------------------------------------|
|-------------------------3h4b-2---------------------------------------|
|---4-3-4-6-4-3-4---4-3-4--------4-3---4-3-4-6-4-3-4----6r----4r----3r-|
|-4---------------2------------------2---------------------------------|
|----------------------------------------------------------------------|
|----------------------------------------------------------------------|


*CHORUS:
listen to figure out the strum pattern:
|-------------------------------------|
|-------------------------------------|
|-4-------------------4--------------4|
|-4----6----4----2----4----6----4----4|
|-2----6----4----2----2----6----4----2|
|------6----4----2---------6----4-----|


*INTRO
*VERSE 

guitar 2: (after "we never quit")
|---6---|
|-7---7-|
|-------|
|-------|
|-------|
|-------|

*CHORUS
[ Tab from: http://www.guitartabs.cc/tabs/e/early_november/sesame_smeshame_tab_ver_3.html ]
guitar 1:  (low)
|----------2-----2-------------2-----2----------------------------------2|
|------2-----2-----2-------2-----2-----2------------------------------2--|
|-4-------------------4--------------------4---3---4---3---4---3--4------|
|---4-------------------4--------------------4---4---4---4---4------4----|
|2-------2-----2---------------------------------------------------------|x2
|--------------------4-------4-----4------4----------------------2-------|

second time guitar 2 comes in:
|---------------------------------------------|
|---------------------------------------------|
|--4-3---------3/4-4-3------4-3-4r------4-3---|
|------4r---------------4r------------------4-|
|---------2-------------------------2---------|x3
|---------------------------------------------|

guitar 1:  strum lightly chorus x2

*CHORUS (both guitars)

guitar 1 continue chorus
guitar 2:
|------------------|
|------------------|
|-16-------15------|
|-14-(x12)-13-(x4)-|x4
|-14-------13------|
|------------------|

guitar 1:
|-----|
|-----|
|-4r--|
|-4r--|
|-2r--|
|-----|

guitar 2:
|-----------2----2-----------2------2-----------------------------------2r-|
|-------2-----2----2------2-----2-----2------------------------------------|
|---4-----------------4-------------------4---3---4---3---4---3-------4r---|
|-----4-----------------4-------------------4---4---4---4---4-------4r-----|
|-2-------2-----2-------------------------------------------------2r-------|
|--------------------6------6-----6-----4-----------------------2r---------|



email me or post any comments or corrections:)
Comments