Early November - Sesame Smeshame Chords & Tabs

 

Sesame Smeshame Chords & Tabs

Early November Chords & Tabs

Version: 1 Type: Tab 0 ratings
1 star 2 stars 3 stars 4 stars 5 stars
comments

Sesame Smeshame Tab

-------------------------------------------------------------------------------
			     Sesame Shesame - Early November
-------------------------------------------------------------------------------
Tabbed by:Dan Smith
Email:hollywood_bam

Tuning:DADGBE
Intro
e|---------------------------------------------------------------------------
B|---------------------------------------------------------------------------
G|-5--5--5--5--5--5--555-----------------------------------------------------
D|-5--5--5--5--5--5--555---(2x)----------------------------------------------
A|-3--3--3--3--3--3--333-----------------------------------------------------
D|---------------------------------------------------------------------------

Verse Guitar 1 "we find our..."
e|---------------------------------------------------------------------------
B|---------------------------------------------------------------------------
G|-5-5-5-5-5-5-5-5----5-5-5-5-5-5-5-5----5-5-5-5-5-5-5-5----5-5-5-5-5-5-5-5--
D|-5-5-5-5-5-5-5-5----5-5-5-5-5-5-5-5----5-5-5-5-5-5-5-5----5-5-5-5-5-5-5-5--
A|-3-3-3-3-3-3-3-3----x-x-x-x-x-x-x-x----3-3-3-3-3-3-3-3----x-x-x-x-x-x-x-x--
D|--------------------7-7-7-7-7-7-7-7----3-3-3-3-3-3-3-3----5-5-5-5-5-5-5-5--
[ Tab from: http://www.guitartabs.cc/tabs/e/early_november/sesame_smeshame_tab.html ]
Verse guitar 2
e|---------------------------------------------------------------------------
B|---------------------------/8-5--------------------------------------------
G|-/5-4-5-/7-5-4-5----/5-4-5------7-5----------------------------------------
D|---------------------------------------------------------------------------
A|---------------------------------------------------------------------------
D|---------------------------------------------------------------------------

Chorus Guitar 1 and 2 "So come in were all inside of nothing.."
e|---------------------------------------------------------------------------
B|---------------------------------------------------------------------------
G|-5-5-5-5----5-5-5-5----5-5-5-5----5-5-5-5----------------------------------
D|-5-5-5-5----5-5-5-5----5-5-5-5----5-5-5-5----(2x)--------------------------
A|-3-3-3-3----x-x-x-x----x-x-x-x----3-3-3-3----------------------------------
D|------------7-7-7-7----5-5-5-5----3-3-3-3----------------------------------

verse 2 (same as verse 1)

Bridge/Final Chorus "so come in we're all inside of nothing..."
let chords ring first time around
e|---------------------------------------------------------------------------
B|---------------------------------------------------------------------------
G|-5-5-5-5----5-5-5-5----5-5-5-5----5-5-5-5----------------------------------
D|-5-5-5-5----5-5-5-5----5-5-5-5----5-5-5-5----(7x)--------------------------
A|-3-3-3-3----x-x-x-x----x-x-x-x----3-3-3-3----------------------------------
D|------------7-7-7-7----5-5-5-5----3-3-3-3----------------------------------

any questions just drop me one. you know where it at homie
HAMMONTON FOR LIFE BABY!
Comments