Early November - Open Eyes Acoustic Chords & Tabs

 

Open Eyes Acoustic Chords & Tabs

Early November Chords & Tabs

Version: 1 Type: Tab 0 ratings
1 star 2 stars 3 stars 4 stars 5 stars
comments

Open Eyes Acoustic Tab

   
-------------------------------------------------------------------------------
	        Open Eyes (acoustic) - The Early November
-------------------------------------------------------------------------------

http://www.drivethrurecords.com/theearlynovember/

Tabbed by: BrettClayton
Email:Breazy4Real@hotmail.com


Thank you Early November...Close to if not perfect. Great song...Thanks and Spanks


Tuning:Standard

  Intro
e|---------------------------------------------------------------------------|
B|---------------------------------------------------------------------------|
G|-----7-------7-----7-------7-------7---------------------------------------|
D|---7---7-------7-----7---7---7---7---7-------------------------------------|
A|-5~------------------------------------------------------------------------|
E|---------5/7-----5-----3-------3-------------------------------------------|

e|---------------------------------------------------------------------------|
B|---------------------------------------------------------------------------|
G|-----7-------7-----7-------7-----7-----------------------------------------|
D|---7---7-------7-----7---7---7---7-----------------------------------------|
A|-5-------------------------------5-----------------------------------------|
E|---------5/7-----5-----3---------3-----------------------------------------|

  Verse
e|---------------------------------------------------------------------------|
B|---------------------------------------------------------------------------|
G|-7-7-7-7--6h7-7-7--7-7-7-7--7--7--7--7-7-7-7-7-7---------------------------|
D|-7-7-7-7--7-7-7-7--7-7-7-7--7--7--7--7-7-7-7-7-7---------------------------|
A|-5-5-5-5--5-5-5-5--5-5-5-5--x--5--0--5-5-5-5-5-5---------------------------|
E|-------------------5-5-5-5--7--5--0--3-3-3-3-3-3---------------------------|
[ Tab from: http://www.guitartabs.cc/tabs/e/early_november/open_eyes_acoustic_tab.html ]
  Interlude
e|---------------------------------------------------------------------------|
B|---------------------------------------------------------------------------|
G|-7-7-7--7-7-7--7-7-7---x-x-7-7-7-------------------------------------------|
D|-7-7-7--7-7-7--7-7-7---x-x-7-7-7-------------------------------------------|
A|-5-5-5--5-5-5--5-5-5---x-x-5-5-5-------------------------------------------|
E|--------5-5-5--3-3-3---x-x-3-3-3-------------------------------------------|

  Chorus
e|---------------------------------------------------------------------------|
B|---------------------------------------------------------------------------|
G|-7--7-----7--7-------------------------------------------------------------|
D|-7--7-----7--7-------------------------------------------------------------|
A|-5s-5-x12-5s-5-x12---------------------------------------------------------|
E|-3s-5-----5s-3-------------------------------------------------------------|

  Bridge
e|---------------------------------------------------------------------------|
B|---------------------------------------------------------------------------|
G|-7-7-7-7--7-7-7-7--7-7-7-7-------------------------------------------------|
D|-7-7-7-7--7-7-7-7--7-7-7-7-------------------------------------------------|
A|-5-5-5-5--x-x-x-x--5-5-5-5-------------------------------------------------|
E|----------7-7-7-7--5-5-5-5-------------------------------------------------|
 
  End
e|---------------------------------------------------------------------------|
B|---------------------------------------------------------------------------|
G|-7-------------------------------------------------------------------------|
D|-7-------------------------------------------------------------------------|
A|-5--let ring---------------------------------------------------------------|
E|-3-------------------------------------------------------------------------|


| /  slide up
| \  slide down
| h  hammer-on
| p  pull-off
| ~  vibrato
| +  harmonic
| x  Mute note
===============================================================================
Comments