Early November - My Sleep Pattern Changed Chords & Tabs

 

My Sleep Pattern Changed Chords & Tabs

Early November Chords & Tabs

Version: 2 Type: Tab 0 ratings
1 star 2 stars 3 stars 4 stars 5 stars
comments

My Sleep Pattern Changed Tab

The Early November- My Sleepin Pattern Changed
The Room's too Cold
Tuning- Drop D



e-----4-3-6-3------------|
B-----4-4-4-4------------|
G------------------------| Intro/Verse x28
D------------------------|
A------------------------|
D------------------------|

e-----4-3-4-3------------|
B-----4-4-4-4------------|
G------------------------|
D------------------------|Pre-Chorus x2
A------------------------|
D------------------------|

e-----4-6-4-6------------|
B-----4-4-4-4------------|
G------------------------|
D------------------------|Pre-Chorus x2
A------------------------|
D------------------------|

e-----4-3-6-3------------|
B-----4-4-4-4------------|
G------------------------| Chorus/Verse x36
D------------------------|
A------------------------|
D------------------------|

e-----4-3-4-3------------|
B-----4-4-4-4------------|
G------------------------|
D------------------------| Pre-Chorus x2
A------------------------|
D------------------------|

e-----4-6-4-6------------|
B-----4-4-4-4------------|
G------------------------|
D------------------------|Pre-Chorus x2
A------------------------|
D------------------------|

e-----4-3-6-3------------|
B-----4-4-4-4------------|
G------------------------| Intro/Verse x4
D------------------------|
A------------------------|
D------------------------|
[ Tab from: http://www.guitartabs.cc/tabs/e/early_november/my_sleep_pattern_changed_tab_ver_2.html ]
e-----4-3-4-3------------|
B-----4-4-4-4------------|
G------------------------|
D------------------------|Pre-Chorus x2
A------------------------|
D------------------------|

e-----4-6-4-6------------|
B-----4-4-4-4------------|
G------------------------|
D------------------------|Pre-Chorus x2
A------------------------|
D------------------------|

e-----4-3-6-3------------|
B-----4-4-4-4------------|
G------------------------| Chorus x12
D------------------------|
A------------------------|
D------------------------|

e------------------------|
B------------------------|
G-----8~-----8~----------| Interlude x6
D-----8~-----8~----------|
A-----6~-----6~----------|
D------------6~----------|

e------------------------|
B------------------------|
G-----8~-----------------| End interlude x1
D-----8~-----------------|
A-----6~-----------------|
D------------------------|

Guitar 1
e-----4-3-6-3------------|
B-----4-4-4-4------------|
G------------------------| End x11
D------------------------|
A------------------------|
D------------------------|

e-----4-3~---------------|
B-----4-4~---------------|
G------------------------| End x1
D------------------------|
A------------------------|
D------------------------|

Guitar 2
e-----------15~------13~-12~-|
B--------11-------11---------|
G-----12-------12------------| End x4
D----------------------------|
A----------------------------|
D----------------------------|

First tab dont kill me if i got something wrong, questions comments email me dagyo6887@email.com
Comments