Early November - My Sleep Pattern Changed Chords & Tabs

 

My Sleep Pattern Changed Chords & Tabs

Early November Chords & Tabs

Version: 1 Type: Tab 0 ratings
1 star 2 stars 3 stars 4 stars 5 stars
comments

My Sleep Pattern Changed Tab

This is the Tab for "My Sleep Pattern Changed".

Basically, its the same thing over and over again, but there is a slight
change during the bridge/interlude.

By the way "Dropped D"

<-------4--3--6----4--3--6---------------------------------------->
<-------4--4--4----4--4--4---------------------------------------->
<----------------------------------------------------------------->
<----------------------------------------------------------------->
<----------------------------------------------------------------->
<----------------------------------------------------------------->

THEN after that, play:
[ Tab from: http://www.guitartabs.cc/tabs/e/early_november/my_sleep_pattern_changed_tab.html ]
<----------------------------------------------------------------->
<----------------------------------------------------------------->
<------8--8--8--8---8--8--8--8------------------------------------>
<------8--8--8--8---8--8--8--8------------------------------------>
<------6--6--6--6---6--6--6--6------------------------------------>
<-------------------6--6--6--6------------------------------------>

FINALLY, you end with the beginning, is that makes any sense...which it does

<-------4--3--6----4--3--6---------------------------------------->
<-------4--4--4----4--4--4---------------------------------------->
<----------------------------------------------------------------->
<----------------------------------------------------------------->
<----------------------------------------------------------------->
<----------------------------------------------------------------->

FADE OUT..

There you go, another Tab...don't forget that you can email me @
MakeMeSad00@aol.com with any questions, comments, concerns, or chastisments.
Have Fun
Comments