Early November - I Want To Hear You Sad Chords & Tabs

 

I Want To Hear You Sad Chords & Tabs

Early November Chords & Tabs

Version: 3 Type: Tab 0 ratings
1 star 2 stars 3 stars 4 stars 5 stars
comments

I Want To Hear You Sad Tab

   
Intro part 1 (guitar 1)(clean)
e|--4---4---4---9-|
B|----------------|
G|----------------|
D|----------------| X2
A|----------------|
E|-2---2---2--2---|

Intro part 2 (guitar 1)(clean)
e|--4---4---4---9-|
B|----------------|
G|----------------|
D|----------------| X2
A|----------------|
E|-4---4---4--4---|

Intro part 1 (guitar 2)(distorted) (during Intro part 2)
e|-------------------------|
B|-------------------------|
G|-------------------------|
D|-------------------------|
A|-11-9-8-6/4/3/4-------11~|
E|-------------------------|

Verse (guitar 2)
e|---8-----8---8-----8-|
B|-9---9-9---9---9-9---|
G|---------------------|
D|---------------------|
A|---------------------|
E|---------------------|

Near end of the verse (both guitars)(distorted)
e|---------------------|
B|---------------------|
G|------------xxxxxxxx-|
D|------------xxxxxxxx-|
A|-11~---/11--xxxxxxxx-|
E|---------------------|

After the Chorus 1st time (guitar 2)(distorted)
e|-----|
B|-----|
G|-----|
D|-----|
A|-11~-|
E|-----| 
[ Tab from: http://www.guitartabs.cc/tabs/e/early_november/i_want_to_hear_you_sad_tab_ver_3.html ]
Chorus (both guitars )(distorted)
e|-------------------------------------|
B|-------------------------------------|
G|-66666666----------------------------|
D|-66666666-44444444-66666666-44444444-|
A|-44444444-44444444-66666666-44444444-|
E|----------22222222-44444444-22222222-|

Bridge (guitar 1) (distorted)
e|------------------------------|
B|------------------------------|
G|------------------------------|
D|-33-33-33-33-44-44-44-44-4444-|
A|-33-33-33-33-44-44-44-44-4444-|
E|-11-11-11-11-22-22-22-22-2222-|

Bridge (guitar 2)(distorted)
e|------------------------------|
B|------------------------------|
G|-1111-3333-5555-6666-88888888-|
D|------------------------------|
A|------------------------------|
E|------------------------------|

Order for guitar 1
Intro part 1 X1
Intro part 2 X1
Intro part 1 X1
Intro part 2 X1
Intro part 1 X1
Intro part 2 X1
Intro part 1 X1
Intro part 2 X1
Intro part 1 X1
Near end of verse X1
Chorus
Repeat the whole intro line up
Near end of verse X1
Chorus X2
Bridge X4
Chorus X2
Intro part 1 X1 (only do the part once, not twice)

Order for guitar 2
Intro part 1 (guitar 2) X1(during the 1st time guitar 1 does Intro part 2,play
the last ?11? during the 2nd time guitar 1 plays intro part 2)
Verse X1 (start it during the second time guitar 1 plays intro part 1 the 2nd
time during the verse, then continue playing until the end of the verse)
Near end of verse X1
Chorus
Do the same for the second verse
Near end of verse X1
Chorus X2
Bridge (guitar 2) X1
Chorus X2
Comments