Early November - Hair Chords & Tabs

 

Hair Chords & Tabs

Early November Chords & Tabs

Version: 1 Type: Tab

Hair Tab

Tabbed by: Andrew (emosideproject2@aol.com)

Intro/Verse
eb|----------------------------------------------------------|
Bb|----------------------------------------------------------|
Gb|-7-7-7-7-7-7-7-7--7-7-7-7-7-7-7-7--7-7-7-7-7-7-7-7--------|
Db|-7-7-7-7-7-7-7-7--6-6-6-6-6-6-6-6--5-5-5-5-5-5-5-5--x2----|
Ab|-5-5-5-5-5-5-5-5--5-5-5-5-5-5-5-5--5-5-5-5-5-5-5-5--------|
Db|-----------------------------------5-5-5-5-5-5-5-5--------|

Chorus
eb|----------------------------------------------------------|
Bb|----------------------------------------------------------|
Gb|-7-7-7-7-7-7-7-7--7-7-7-7-7-7-7-7-------------------------|
Db|-7-7-7-7-7-7-7-7--6-6-6-6-6-6-6-6--9-9-9-7-7-7-5-5-5-5-5--|
Ab|-5-5-5-5-5-5-5-5--5-5-5-5-5-5-5-5--9-9-9-7-7-7-5-5-5-5-5--|
Db|-----------------------------------9-9-9-7-7-7-5-5-5-5-5--|
[ Tab from: http://www.guitartabs.cc/tabs/e/early_november/hair_tab.html ]
eb|--------------------------------------------------------------|
Bb|--------------------------------------------------------------|
Gb|-7-7-7-7-7-7-7-7--7-7-7-7-7-7-7-7-----------------------------|
Db|-7-7-7-7-7-7-7-7--6-6-6-6-6-6-6-6--9-9-9-9-5-5-5-5-5-7-7-7--x2|
Ab|-5-5-5-5-5-5-5-5--5-5-5-5-5-5-5-5--9-9-9-9-5-5-5-5-5-7-7-7----|
Db|-----------------------------------9-9-9-9-5-5-5-5-5-7-7-7----|

(Guitar 2)
eb|------------------------------------------------------------------------|
Bb|--------------------------------15--------------------15----------------|
Gb|-----------------------------------14-9/11/9/7-----------14--9/11/9/7---|
Db|--12----14/16-16-16-14-12-14-12----------------7-9-12-------------------|
Ab|-----14-----------------------------------------------------------------|
Db|------------------------------------------------------------------------|