Early November - Fluxy Chords & Tabs

 

Fluxy Chords & Tabs

Early November Chords & Tabs

Version: 3 Type: Tab 0 ratings
1 star 2 stars 3 stars 4 stars 5 stars
comments

Fluxy Tab

   
Well, this will be my first Early November tab but hopefully not my last. the number
of times each note is pick in the intro may not be perfect but the notes themselves
are. The other tabs were not horrible they were just in the wrong tuning which messed
everything up.
Song:Fluxy
Band:Early November
Tabbed by: Roberto Alexander
0:00-0:21
eb|---------------------------------------------------------------------|
Bb|---------------------------------------------------------------------|
Gb|---------------------------------------------------------------------|
Db|---0---0---0---0---0---0---0---0---0---0---0-----0---0---0---0---0---|
Ab|-5---5---5---5---4---4---4---4---2---2---2---------------------------|
Db|---------------------------------------------2/5---5---5---0---0---0-|

eb|-----------------|
Bb|-----------------|
Gb|-----------------|
Db|---0---0---0-----|
Ab|-----------------|
Db|-7---7---7---7---|
0:22-0:42
eb|--------------------------------------------\
Bb|--------------------------------------------\
Gb|--------------------------------------------\
Db|-5-5-5-5--5-5-5-5-0~7-7-7-7-7--7-7-7-0~-----\  4 times
Ab|-5-5-5-5--5-5-5-5-0~7-7-7-7-7--7-7-7-0~-----\
Db|-5-5-5-5--5-5-5-5-0~7-7-7-7-7--7-7-7-0------\-/
Guitar#2
0:27-0:42
eb|-------------------------------------\
Bb|-------------------------------------\
Gb|-7-7-6-6-----7-7-6-6-----7-7-6-6-----\
Db|---------7-7---------7-7-------------\   7 times
Ab|-------------------------------------\
Db|-------------------------------------\
[ Tab from: http://www.guitartabs.cc/tabs/e/early_november/fluxy_tab_ver_3.html ]
Verse:"It's not fair..." 0:42-0:52
eb|-----------------------------------|
Bb|-----------------------------------|
Gb|-7~7-/-9-\-6~6-/-11-9-/-11-7~7-/-9-|
Db|-X~X-/-X-\-X~X-/-X--X-/-X--X~X-/-X-|
Ab|-5~5-/-7-\-4~4-/-9--7-/-9--5~5-/-7-|
Eb|-----------------------------------|
0:53-1:01 "I don't care..."
eb|----------------------------------------\
Bb|----------------------------------------\
Gb|-7-X-7-X-7-X-/-9-\6-X-6-X-6-------------\
Db|-X-X-X-X-X-X-/-X-\X-X-X-X-X-5--5--7--7~-\
Ab|-5-X-5-X-5-X-/-7-\4-X-4-X-4-5--5--7--7~-\
Db|----------------------------5--5--7--7~-\
Guitar 1
1:02-1:22 "Wait and see..."
eb|----------------------------------------------------------------------\
Bb|----------------------------------------------------------------------\
Gb|----------------------------------------------------------------------\
Db|-5-5-5-5-5-5-5-5-0-0-0-0-0-0-0-0-7-7-7-7-7-7-7-7-0-0-0-0-0-0-0-0------\x4
Ab|-5-5-5-5-5-5-5-5-0-0-0-0-0-0-0-0-7-7-7-7-7-7-7-7-0-0-0-0-0-0-0-0------\
Db|-5-5-5-5-5-5-5-5-0-0-0-0-0-0-0-0-7-7-7-7-7-7-7-7-0-0-0-0-0-0-0-0------\
Guitar 2
1:13-1:22 "The places that"
eb|-----------------------------------------------------------\
Bb|-----------------------------------------------------------\
Gb|-7-7-7-7-7-7-7-7-/-9-9-9-9-9-9-9-9-/-6-6-6-6-6-6-6-6-------\
Db|-X-X-X-X-X-X-X-X-/-X-X-X-X-X-X-X-X-/-X-X-X-X-X-X-X-X-------\ x3
Ab|-5-5-5-5-5-5-5-5-/-7-7-7-7-7-7-7-7-/-4-4-4-4-4-4-4-4-------\
Db|-----------------------------------------------------------\
1:22-24 Palm mute
eb|-----------------|
Bb|-----------------|
Gb|-7-7-7-7-7-7-7-7-|
Db|-7-7-7-7-7-7-7-7-|
Ab|-5-5-5-5-5-5-5-5-|
Db|-----------------|
Verse 2:
1:25-1:34 "It's not fair..."
eb|-----------------------------------|
Bb|-----------------------------------|
Gb|-7~7-/-9-\-6~6-/-11-9-/-11-7~7-/-9-|
Db|-X~X-/-X-\-X~X-/-X--X-/-X--X~X-/-X-|
Ab|-5~5-/-7-\-4~4-/-9--7-/-9--5~5-/-7-|
Eb|-----------------------------------|
1:37-1:45 "I dumped ya?"
eb|----------------------------------------\
Bb|----------------------------------------\
Gb|-7-X-7-X-7-X-/-9-\6-X-6-X-6-------------\
Db|-X-X-X-X-X-X-/-X-\X-X-X-X-X-5--5--7--7~-\
Ab|-5-X-5-X-5-X-/-7-\4-X-4-X-4-5--5--7--7~-\
Db|----------------------------5--5--7--7~-\
1:46-1:54 "Wait and see"
eb|----------------------------------------------------------------------\
Bb|----------------------------------------------------------------------\
Gb|----------------------------------------------------------------------\
Db|-5-5-5-5-5-5-5-5-0-0-0-0-0-0-0-0-7-7-7-7-7-7-7-7-0-0-0-0-0-0-0-0------\x4
Ab|-5-5-5-5-5-5-5-5-0-0-0-0-0-0-0-0-7-7-7-7-7-7-7-7-0-0-0-0-0-0-0-0------\
Db|-5-5-5-5-5-5-5-5-0-0-0-0-0-0-0-0-7-7-7-7-7-7-7-7-0-0-0-0-0-0-0-0------\
1:55-2:04 "Places that..."
eb|-----------------------------------------------------------\
Bb|-----------------------------------------------------------\
Gb|-7-7-7-7-7-7-7-7-/-9-9-9-9-9-9-9-9-/-6-6-6-6-6-6-6-6-------\
Db|-X-X-X-X-X-X-X-X-/-X-X-X-X-X-X-X-X-/-X-X-X-X-X-X-X-X-------\ x3
Ab|-5-5-5-5-5-5-5-5-/-7-7-7-7-7-7-7-7-/-4-4-4-4-4-4-4-4-------\
Db|-----------------------------------------------------------\
2:05-2:26
eb|---------------------------------------------------------------------|
Bb|---------------------------------------------------------------------|
Gb|---------------------------------------------------------------------|
Db|---0---0---0---0---0---0---0---0---0---0---0-----0---0---0---0---0---|
Ab|-5---5---5---5---4---4---4---4---2---2---2---------------------------|
Db|---------------------------------------------2/5---5---5---0---0---0-|

eb|-----------------------\
Bb|-----------------------\
Gb|-----------------------\
Db|---0---0---0-----------\ x2
Ab|-----------------------\
Db|-7---7---7---7---------\
2:27-2:35
eb|-------------------------------------------\
Bb|-------------------------------------------\
Gb|-------------------------------------------\
Db|-5-5-5-5-5-5-5-5-0~7-7-7-7-7-7-7-7-0~------\ x4
Ab|-5-5-5-5-5-5-5-5-0~7-7-7-7-7-7-7-7-0~------\
Eb|-5-5-5-5-5-5-5-5-0~7-7-7-7-7-7-7-7-0-------\-/
Chorus
2:36-2:43"Wait and See..."
eb|----------------------------------------------------------------------\
Bb|----------------------------------------------------------------------\
Gb|----------------------------------------------------------------------\
Db|-5-5-5-5-5-5-5-5-0-0-0-0-0-0-0-0-7-7-7-7-7-7-7-7-0-0-0-0-0-0-0-0------\x4
Ab|-5-5-5-5-5-5-5-5-0-0-0-0-0-0-0-0-7-7-7-7-7-7-7-7-0-0-0-0-0-0-0-0------\
Db|-5-5-5-5-5-5-5-5-0-0-0-0-0-0-0-0-7-7-7-7-7-7-7-7-0-0-0-0-0-0-0-0------\
2:44-2:54 "Places that..."
eb|-----------------------------------------------------------\
Bb|-----------------------------------------------------------\
Gb|-7-7-7-7-7-7-7-7-/-9-9-9-9-9-9-9-9-/-6-6-6-6-6-6-6-6-------\
Db|-X-X-X-X-X-X-X-X-/-X-X-X-X-X-X-X-X-/-X-X-X-X-X-X-X-X-------\ x3
Ab|-5-5-5-5-5-5-5-5-/-7-7-7-7-7-7-7-7-/-4-4-4-4-4-4-4-4-------\
Db|-----------------------------------------------------------\
Guitar 1
2:55-3:18 "It's all been done..."
eb|--------------------------------------------\
Bb|--------------------------------------------\
Gb|--------------------------------------------\
Db|-5-5-5-5--5-5-5-5-0~7-7-7-7-7--7-7-7-0~-----\  6 times
Ab|-5-5-5-5--5-5-5-5-0~7-7-7-7-7--7-7-7-0~-----\
Db|-5-5-5-5--5-5-5-5-0~7-7-7-7-7--7-7-7-0------\-/
2:55-3:15
eb|-------------------------------------\
Bb|-------------------------------------\
Gb|-7-7-6-6-----7-7-6-6-----7-7-6-6-----\
Db|---------7-7---------7-7-------------\   8 times
Ab|-------------------------------------\
Db|-------------------------------------\


Finally done. This tab took me a really long so plz give it an honest rating. Enjoi.
Comments