Early November - Everythings Too Cold But Youre So Hot Chords & Tabs

 

Everythings Too Cold But Youre So Hot Chords & Tabs

Early November Chords & Tabs

Version: 1 Type: Tab

Everythings Too Cold But Youre So Hot Tab

-------------------------------------------------------------------------------
        EVERYTHING'S TOO COLD... BUT YOUR'E SO HOT - The Early November
-------------------------------------------------------------------------------
Tabbed by: Jordan
Email: iwantmusic57@gmail.com

Tuning: Eb Low to high: D#G#C#F#A#D#

im pretty sure that most of this is 100% percent right. some of it needs to be worked on though.

e|------------|
B|----------8-|
G|----(0)---0-| play this four times.
D|-(9)-9------|
A|-10----10---|
E|------------|
[ Tab from: http://www.guitartabs.cc/tabs/e/early_november/everythings_too_cold_but_youre_so_hot_tab.html ]
e|------------|
B|---------8--|
G|----(0)--0--| again.. play four times
D|-(9)-9------|
A|--7----7----|
E|------------|

e|------------|
B|--------8---|
G|--(0)---0---| ...four times...
D|---9--------|
A|------------|
E|-8---8------|

e|------------|
B|----------8-|
G|----(0)---0-| and play this four times again..
D|-(9)-9------|
A|-10----10---|
E|------------|

PLAY THIS WHOLE PART FOUR TIMES.


e|------------------------------------|
B|---8---------8-------7-------7------|
G|-9---------9-------8-------8--------|  play this twice
D|--------9--------9-------8-------8--|
A|-----10-------10-------9-------9----|
E|------------------------------------|


e|--0---|
B|--8---|
G|--0---|  strum this slowly nine times
D|--9---|
A|-10---|
E|------|