Early November - Everynights Another Story Chords & Tabs

 

Everynights Another Story Chords & Tabs

Early November Chords & Tabs

Version: 1 Type: Tab 0 ratings
1 star 2 stars 3 stars 4 stars 5 stars
comments

Everynights Another Story Tab

Artist: The Early November
Song: Everynight's Another Story
Album: For All of This
Tabbed by: Kyle Woodward

It is played in Drop C but sounds fine in drop D

Intro
--------------------------------------------
--------------------------------------------
--10---10-|------10--12--14/--10--12--------
--10---10-|--then-x----x---x/--x----x-------
--8----0--|x2 ----8---10--12/--8---10-------
--8----0--|---------------------------------
[ Tab from: http://www.guitartabs.cc/tabs/e/early_november/everynights_another_story_tab.html ]
Verse
--------------------------------------------
-----------------then--6h5-6h5-6h5-6h5------
--10---10--|--------------------------------
--10---10--|--------------------------------
--8----0---|-x2-----------------------------
--8----0---|--------------------------------
P.M..............

Chorus
--------------------------------------------
--------------------------------------------
--10---10--10-------------------------------
--10---10--10---10--------------------------
--8----0---8----10--------------------------
--8----0---8----10--------------------------

Verse
--------------------------------------------
-----------------then--6h5-6h5-6h5-6h5------
--10---10--|--------------------------------
--10---10--|--------------------------------
--8----0---|-x2-----------------------------
--8----0---|--------------------------------
P.M..............

Chorus x2

Break down is same as intro

Thats 100% correct
Comments