Early November - Ever So Sweet Chords & Tabs

 

Ever So Sweet Chords & Tabs

Early November Chords & Tabs

Version: 2 Type: Tab 0 ratings
1 star 2 stars 3 stars 4 stars 5 stars
comments

Ever So Sweet Tab

i got "this rooms to cold" the day it came out, and so far i learned every
song on the whole cd. so if u need any other tabs for the cd (or anyother tabs
by anyone), u can email me at MakeMeSad00@aol.com.

use regular tuning, THEN drop down a step for ~Dropped D~


<-x----x----x----x----------------------------------->     you'll figure out
<-x----x----x----x----------------------------------->     the strumming
<-3----8----5----3----------------------------------->     pattern.
<-1----6----5----3----------------------------------->
<-1----6----3----1----------------------------------->
<-1----6----x----x----------------------------------->

THEN
(bridge)

"can't you see the wall you built for me, were not special....ETC"
[ Tab from: http://www.guitartabs.cc/tabs/e/early_november/ever_so_sweet_tab_ver_2.html ]
<--P--------------------------S-------x-----x-------->
<--A--------------------------T-------x-----x-------->
<--L---M--------5-------------R-------5-----x-------->
<--M---U--------5------5------U-------5-----5-------->
<------T--------3------3------M-------3-----3-------->
<------E---------------3------M-------x-----3-------->

then end with.....

"....Down...."

<------------------------------------L---------------->
<------------------------------------E-------O-------->
<------8------8--~~~~~~-----3--------T---R---U-------->
<------6------6--~~~~~~-----1------------I---T-------->
<------6------6--~~~~~~-----1------------N------------>
<------6------6--~~~~~~-----1------------G------------>

and there you go... Ever So Sweet by The Early November. if you need any song
tabbed, just contact me and i will have them ready... have fun and go out and
buy the cd, its unbelievable..
Comments