Early November - Course Of Human Life Chords & Tabs

 

Course Of Human Life Chords & Tabs

Early November Chords & Tabs

Version: 1 Type: Tab 0 ratings
1 star 2 stars 3 stars 4 stars 5 stars
comments

Course Of Human Life Tab

Song: The Course Of Human Life
By: The Early November
Album: The Room's Too Cold
tabbed by: pwrchrdprincess

I'm pretty sure this is right. The number of times the riffs or notes are played might 
be exact, but other than that it should be pretty much correct. Organizing tabs is not 
of my strong suits, so it might be hard to understand, but here goes...

# = quick stop
~ = let ring
p = hammer on
p = pull off


Guitar 1 INTRO:
|--------------------              |-3-----------------|
|--8p4---------------              |---4-3-------------|
|------9p3-5---------              |-------3-5---------|
|--------------------      OR      |-------------------|
|-------------(x35)--              |------------(x35)--|
|--------------------              |-------------------|
(Both are the same riff, the second one is easier on the fingers)

(After Guitar plays INTRO 8 times)
Guitar 2 INTRO:
|----6~---------6~---11-6~--|
|--9~---------9~------------|
|---------------------------|
|---------------------------|
|---------------------------|
|---------------------------|

|----6---11-6-------|--6---6-11-6-------|--6---6-11~----------------|
|--9---9------9-----|----9--------9-----|----9----------------------|
|-------------------|-------------------|---------------------------|
|-------------------|-------------------|---------------------------|
|-------------------|-------------------|---------------------------|
|-------------------|-------------------|---------------------------|
|Play this part once| MAIN part 8 times | This part once

Guitar 1 FILL:
|---------------------------|
|---------------------------|
|--5555-5-5555-5-5555-5-5b--|
|--xxxx-x-xxxx-x-xxxx-x-x---|
|--3333-3-3333-3-3333-3-3b--|
|---------------------------|

Guitar 1 PRE-VERSE:
|----------------------------------------------------------------(x2)---|
|-----------------------------------------------------------------------|
|--13131313-12121212-10101010-8888--15151515-13131313-12121212-10101010-|
|--x-x-x-x--x-x-x-x--x-x-x-x--xxxx--x-x-x-x--x-x-x-x--x-x-x-x--x-x-x-x--|
|--11111111-10101010-8-8-8-8--6666--13131313-11111111-10101010-8-8-8-8--|
|-----------------------------------------------------------------------|

|-------------------------------------------------------------------|
|-------------------------------------------------------------------|
|--1717171717171717171717171717171717171717\13131313131313/---------|
|--x-x-x-x-x-x-x-x-x-x-x-x-x-x-x-x-x-x-x-x--x-x-x-x-x-x-x-----------|
|--1515151515151515151515151515151515151515\11111111111111/---------|
|-------------------------------------------------------------(x3)--|

|-----------------------------------------|
|-----------------------------------------|
|--1515151515-13131313-12121212-10101010--|
|--x-x-x-x-x--x-x-x-x--x-x-x-x--x-x-x-x---|
|--1313131313-11111111-10101010-8-8-8-8---|
|-----------------------------------------|

Guitar 1 FILL

Guitar 1 VERSE:
|--------------------------------------3-----------------------------|
|----------------------------------------4-3-------------------------|
|---------------55-55-55-55------------------3-5--55-55-55-55--------|
|--66-66-66-66--55-55-55-55--66-66-66-------------55-55-55-55--------|
|--66-66-66-66--33-33-33-33--66-66-66-------------33-33-33-33--------|
|--44-44-44-44---------------44-44-44--------------------------(x2)--|

(After Guitar 1 plays VERSE once)
Guitar 2 INTRO 8 times
[ Tab from: http://www.guitartabs.cc/tabs/e/early_november/course_of_human_life_tab.html ]
Guitar 1 PRE-CHORUS: ("We've come so far")
|------------------------------------------------------------------|
|------------------------------------------------------------------|
|--555555555555555555555555-151515151515151515151515-131313131313--|
|--xxxxxxxxxxxxxxxxxxxxxxxx-x-x-x-x-x-x-x-x-x-x-x-x--x-x-x-x-x-x---|
|--333333333333333333333333-131313131313131313131313-111111111111--|
|------------------------------------------------------------------|

|----------------|
|----------------|
|--121212121212--|
|--x-x-x-x-x-x---|
|--101010101010--|
|----------------|

|------------------------------------------------------------------|
|------------------------------------------------------------------|
|--555555555555555555555555-151515151515151515151515-131313131313--|
|--xxxxxxxxxxxxxxxxxxxxxxxx-x-x-x-x-x-x-x-x-x-x-x-x--x-x-x-x-x-x---|
|--333333333333333333333333-131313131313131313131313-111111111111--|
|------------------------------------------------------------------|

|----------------------------------|
|----------------------------------|
|--151515151515---17171717171717#--|
|--x-x-x-x-x-x----x-x-x-x-x-x-x----|
|--131313131313---15151515151515#--|
|----------------------------------|

Guitar 1 CHORUS: ("Out of everyone, everywhere")
|-----------------------------------------|
|-----------------------------------------|
|--1515151515-13131313-12121212-10101010--|
|--x-x-x-x-x--x-x-x-x--x-x-x-x--x-x-x-x---|
|--1313131313-11111111-10101010-8-8-8-8---|
|-----------------------------------------|

|--------------------------------------------|
|--------------------------------------------|
|--1717171717171717171717171717171717171717--|
|--x-x-x-x-x-x-x-x-x-x-x-x-x-x-x-x-x-x-x-x---|
|--1515151515151515151515151515151515151515--|
|--------------------------------------------|

|-----------------------------------------|
|-----------------------------------------|
|--1515151515-13131313-12121212-10101010--|
|--x-x-x-x-x--x-x-x-x--x-x-x-x--x-x-x-x---|
|--1313131313-11111111-10101010-8-8-8-8---|
|-----------------------------------------|

Guitar 1 FILL

Guitar 1 VERSE

Guitar 1 PRE-CHORUS

Guitar 1 CHORUS

Guitar 2 INTRO

(After Guitar 2 plays INTRO riff 2 times)
Guitar 1 RIFF:
|---------------------------------/10--------|
|--8/9~--8/9-11-11-11-11--8/9-8-4-----11-8~--|
|--------------------------------------------|
|--------------------------------------------|
|--------------------------------------------|
|--------------------------------------------|

|-------13----------13----------10----------10-------------|
|--8-11----11--8-11----11--8-11----11--8-11----11----------|
|----------------------------------------------------------|
|--------------------------------------------------(x3.5)--|
|----------------------------------------------------------|
|----------------------------------------------------------|

Guitar 1 PRE-CHORUS

Guitar 1 CHORUS

Guitar 1 INTRO x28
(At same time as)
Guitar 2 Intro Variation:
|----6---11-6----6---6-11-6---6---6-11-6---6~------------|
|--9---9------9----9--------9---9--------9-----9~--------|
|--------------------------------------------------------|
|--------------------------------------------------(x2)--|
|--------------------------------------------------------|
|--------------------------------------------------------|

Guitar 2 INTRO

Guitar 1 end on: |--3#--      Guitar 2 end on: |--11#--|
                 |------                       |-------|
                 |------                       |-------|
                 |------                       |-------|
                 |------                       |-------|
                 |------                       |-------|


If you have questions, comments, or corrections, my email address is Lisa1330@aol.com
Comments