Early November - Come Back Acoustic Chords & Tabs

 

Come Back Acoustic Chords & Tabs

Early November Chords & Tabs

Version: 1 Type: Tab 0 ratings
1 star 2 stars 3 stars 4 stars 5 stars
comments

Come Back Acoustic Tab

yet another great song by the early november, its off the acoustic ep and is standard
tuning except the thickest E string is tuned to D like most of their acoustics.

INTRO:
e-----------------|-------------|--------------------------------------|
B-----------------|-------------|--------------------------------------|
G-----0-------0---|----0-----0--|-----0-------0-------0-------0----0---|
D---4---4----4--4-|--4--4--4--4-|---4---4---4---4---4---4---4---4--4---|
A--5-------5------|-0-----0-----|--------------------------------------|
D-----------------|-------------|-5-------5-------5-------5--------5---|
[ Tab from: http://www.guitartabs.cc/tabs/e/early_november/come_back_acoustic_tab.html ]
VERSE:
e-------------------|-----------------|----------------------------------|
B-------------------|-----------------|----------------------------------|
G------0--------0---|-----0-------0---|-----0-------0-------0-------0----|
D----4---4----4---4-|---4---4---4---4-|---4---4---4---4---4---4---4---4--|
A--5--------5-------|-0-------0-------|----------------------------------|
D-------------------|-----------------|-5-------5-------5-------5--------|

CHORUS:
e------|--------|------------|
B------|--------|------------|
G--77--|--7777--|--77777777--|
D--77--|--7777--|--77777777--|
A--55--|--7777--|--55555555--|
D------|--------|--55555555--|

OUTRO:
e------|------|----------|
B------|------|----------|
G--77--|--77--|--777777--|
D--77--|--77--|--777777--|
A--55--|--xx--|--xxxxxx--|
D------|--77--|--555555--|

its and up and down strumming rythem for the chorus and outro.

thanks email me at LotusLunchbox@yahoo.com
Comments