Earlimart - The Hidden Track Chords & Tabs

 

The Hidden Track Chords & Tabs

Earlimart Chords & Tabs

Version: 1 Type: Tab 0 ratings
1 star 2 stars 3 stars 4 stars 5 stars
comments

The Hidden Track Tab

   
Artist: Earlimart
Song: The Hidden Track


PART A
 x8  x8
|-------|
|-------|
|-------|
|-5---4-|
|-5---5-|
|-3---3-|

PART B
 x12  x2  x2
|-----------|
|-----------|
|-----------|
|-2---4---5-|
|-2---4---5-|
|-0---2---3-|

RIFF 1
|--------12-7-|
|-12-10-------|
|-------------|
|-------------|
|-------------|
|-------------|

RIFF 2A                       RIFF 2B
|-14-14-12-10-7-|        |-14-14-12-10-12---14-12-10-7-|
|---------------|        |-----------------------------|
|---------------|        |-----------------------------|
|---------------|        |-----------------------------|
|---------------|        |-----------------------------|
|---------------|        |-----------------------------|
[ Tab from: http://www.guitartabs.cc/tabs/e/earlimart/the_hidden_track_tab.html ]
RIFF 3A                      RIFF 3B
|-------------|          |-------------|
|-------------|          |-------------|
|-11-9-7-9/11-|          |-12-9---11-7-|
|-------------|          |-------------|
|-------------|          |-------------|
|-------------|          |-------------|

RIFF 4
|-------------------|
|-------------------|
|-12~--11~--7~--11~-|
|-------------------|
|-------------------|
|-------------------|


PART A  x 3
PART B  x 1
PART A  x 3
PART B  x 1
PART A  x 3
PART B  x 1
RIFF 1  x 14
RIFF 2A x 2
RIFF 2B x 1
RIFF 3A x 2
RIFF 3B x 1
RIFF 3A x 2
RIFF 3B x 1
RIFF 1  x 14
RIFF 2A x 2
RIFF 2B x 1
RIFF 2A x 2
RIFF 2B x 1
RIFF 1  x 14
RIFF 4  x 7


Any questions or comments can be sent to bborred@hotmail.com


Comments