Eamon - Fuck It Chords & Tabs

 

Fuck It Chords & Tabs

Eamon Chords & Tabs

Version: 2 Type: Tab 0 ratings
1 star 2 stars 3 stars 4 stars 5 stars
comments

Fuck It Tab

Song - Eamon/Fuck It
Tabber - ZELANE
E-mail - zellthatsme@hotmail.com

IF YOU LIKE IT, RATE IT

Hey people, eamon got it realy realy close, but he was just a half step outa key.
So heres the only riff in the whole song, just repeat it over and over lol, play it with 
song to get the timings

e|--------------------------------------------------|
B|--------------------------------------------------|
G|---------------------5----------------------------|
D|------13------8------5------6---------------------|
A|------13------8------3------6---------------------|
E|------11------6-------------4---------------------|

Just for the sake of it i thought id show you the way that I play it on lead guitar, 
the other riff as backing

Heavy Distortion
[ Tab from: http://www.guitartabs.cc/tabs/e/eamon/fuck_it_tab_ver_2.html ]
e|--------------------------------|
B|--------------------------------|
G|------------11-------------11---|
D|------------13-------------13---|    x3 (the second bit only)
A|---------13-------------13------|
E|------11---------11-11----------|

e|--------------------------------|
B|--------------------------------|
G|------------6-----------6-------|
D|------------8-----------8-------|    x3 (the second bit only)
A|---------8-----------8----------|
E|------6---------6-6-------------|

e|--------------------------------|
B|------------3-----------3-------|
G|------------5-----------5-------|
D|---------5-----------5----------|    x3 (the second bit only)
A|------3---------3-3-------------|
E|--------------------------------|

e|--------------------------------|
B|--------------------------------|
G|------------4-----------4-------|
D|------------6-----------6-------|    x3 (the second bit only)
A|---------6-----------6----------|
E|------4---------4-4-------------|
Comments