Eagles Of Death Metal - Midnight Creeper Chords & Tabs

 

Midnight Creeper Chords & Tabs

Eagles Of Death Metal Chords & Tabs

Version: 2 Type: Tab 0 ratings
1 star 2 stars 3 stars 4 stars 5 stars
comments

Midnight Creeper Tab

Band - Eagles of Death Metal
Song - Midnight Creeper

 Intro/Interlude:
|----------------------------------------|
|--3-3-3333-0----------------------------|
|----4-3333-0----------------------------|
|----------------------------------------|
|----------------------------------------|
|--------------3-5^-3--------------------|


 Verse:
|---1-2-3-3-1-0-----0-3-3-1-0---0-3-3-1-0---------------------------|
|-3-------------3-0-----------3-----------3-0---0-3-3-3333-0--------|
|---------------------------------------------3-----4-3333-0--------|
|-------------------------------------------------------------------|
|-------------------------------------------------------------------|
|------------------------------------------------------------3-5^-3-|

[ Tab from: http://www.guitartabs.cc/tabs/e/eagles_of_death_metal/midnight_creeper_tab_ver_2.html ]
Interlude:
|----------------------------------------|
|--3-3-3333-0----------------------------|
|----4-3333-0----------------------------|
|----------------------------------------|
|----------------------------------------|
|--------------3-5^-3--------------------|

|---------------1-2-3--------------------|
|--3-3-3333-0-3--------------------------|
|----4-3333-0----------------------------|
|----------------------------------------|
|----------------------------------------|
|----------------------------------------|

 Verse:
|---1-2-3-3-1-0-----0-3-3-1-0---0-3-3-1-0---------------------------|
|-3-------------3-0-----------3-----------3-0---0-3-3-3333-0--------|
|---------------------------------------------3-----4-3333-0--------|
|-------------------------------------------------------------------|
|-------------------------------------------------------------------|
|------------------------------------------------------------3-5^-3-|
Comments