Eagles Of Death Metal - Bad Dream Mama Chords & Tabs

 

Bad Dream Mama Chords & Tabs

Eagles Of Death Metal Chords & Tabs

Version: 2 Type: Tab

Bad Dream Mama Tab

tuning(from lowest): DGDGBD but if you're lazy you can just tune the a string down to g and it'll still work

D|---|----------------|------------------|
B|---|----------------|------------------|
G|-2-|--2-2-2-2-2-2---|----------------2-|
D|-0-|--0-3-0-3-0-0-0-|--3-3-5-3-6-3-5-0-|
G|---|--------------0-|--3-3-3-3-3-3-3---|
D|---|----------------|------------------|
[ Tab from: http://www.guitartabs.cc/tabs/e/eagles_of_death_metal/bad_dream_mama_tab_ver_2.html ]
D|----------------|---------------|
B|----------------|--7-7-7-7-4----|
G|--2-2-2-2-2-2-4-|--4-4-4-4-4--2-|
D|--0-3-0-3-0-O-4-|--4-4-4-4-4--0-|
G|--------------4-|--4-4-4-4-4----|
D|----------------|---------------|

D|----------------|-----------------|
B|----------------|-----------------|
G|--2-2-2-2-2-2---|-----------------|
D|--0-3-0-3-0-0-0-|-0-0-2-0-2-0-0-3-|
G|--------------0-|-0-0-0-0-0-0-0-3-|
D|----------------|-----------------|

D|-----------------|-----------------|
B|-----------------|-----------------|
G|-----------------|-2-2-4-2-4-2-2-2-|
D|-3-3-5-3-5-5-7-5-|-0-0-0-0-0-0-0-0-|
G|-3-3-3-3-5-5-5-5-|-----------------|
D|-----------------|-----------------|

there you have it.