Eagles - Try And Love Again Chords & Tabs

 

Try And Love Again Chords & Tabs

Eagles Chords & Tabs

Version: 1 Type: Tab 0 ratings
1 star 2 stars 3 stars 4 stars 5 stars
comments

Try And Love Again Tab

   
/ = slide
b = bend
r = release


Intro riff (melody)

e|--2--2--2--0----------------------------------------------|
B|--------------3--0--3/5---3--3--5--3--0-------------------|
G|-----------------------------------------2------2---0-----|
D|---------------------------------------------4------------|
A|----------------------------------------------------------|
E|----------------------------------------------------------|

Intro riff (harmony)

e|----------------------------------------------------------|
B|--2--2--2--0----------------------------------------------|
G|--------------2----2h4---2--2--4--2-----------------------|
D|-----------------4--------------------4--2------2---0-----|
A|---------------------------------------------4------------|
E|----------------------------------------------------------|

Intro riff (octave melody)

e|--14--14--14--12-------------------------12-------------------------|
B|------------------15--12--15/17--15--15-----15--12------------------|
G|----------------------------------------------------14--11--14--12--|
D|--------------------------------------------------------------------|
A|--------------------------------------------------------------------|
E|--------------------------------------------------------------------|

Solo
[ Tab from: http://www.guitartabs.cc/tabs/e/eagles/try_and_love_again_tab.html ]
e|-----------------------------------------------------------------|
B|-----15--17b(19)r17--15--17------15--17--17b(19)r17--15--17------|
G|-/16-------------------------------------------------------------|
D|----------------------------17-------------------------------17--|
A|-----------------------------------------------------------------|
E|-----------------------------------------------------------------|

e|---------------------------17------------------------------------|
B|--15--17- 17b(19)r17---15------17b(19)r17--15--------------------|
G|-----------------------------------------------------------------|
D|-------------------------------------------------19--------------|
A|-----------------------------------------------------------------|
E|-----------------------------------------------------------------|

e|-------10--7-----------------------------------------------------|
B|-------------10--------------------------------------------------|
G|--9b11-----------9b(11)r9--7------7-----9b(11)-------------------|
D|------------------------------9------9----------9----------------|
A|-----------------------------------------------------------------|
E|-----------------------------------------------------------------|

e|-----------------------------------7----------------------------------|
B|--------7------------7--8--10--10-----10--8--7------------------------|
G|--7--9--------7---------------------------------9--7------------------|
D|-----------9-----9------------------------------------9--7------------|
A|------------------------------------------------------------9--7------|
E|------------------------------------------------------------------10--|

Comments