Eagles - Take It Easy Chords & Tabs

 

Take It Easy Chords & Tabs

Eagles Chords & Tabs

Version: 3 Type: Tab 0 ratings
1 star 2 stars 3 stars 4 stars 5 stars
comments

Take It Easy Tab

   Guitar 1
  e-------------9-----9--------------------7-----------------------------|
  a-7-----7------------------0------0--------------0---------------------|
  d---9-----9-----9-----9------9------9-------9------9-------------------|
  g-----9-----9-----9-----9------9------9-------9------9-----------------|
  b----------------------------------------------------------------------|
  e----------------------------------------------------------------------|
   Guitar 2
  e-------------9--9--9--9----5-5-5-5----7-7----5-5----------------------|
  a-7-7-7-7----11-11-11-11-x2-7-7-7-7-x2-9-9-x2-7-7-x2-------------------|
  d-9-9-9-9-x2 11-11-11-11----7-7-7-7----9-9----7-7----------------------|
  g-9-9-9-9--------------------------------------------------------------|
  b----------------------------------------------------------------------|
  e----------------------------------------------------------------------|
[ Tab from: http://www.guitartabs.cc/tabs/e/eagles/take_it_easy_tab_ver_3.html ]
   Guitar 1
  e-------------9-----9--------------------7-----------------------------|
  a-7-----7------------------0------0--------------0---------------------|
  d---9-----9-----9-----9------9------9-------9------9---x2--------------|
  g-----9-----9-----9-----9------9------9-------9------9-----------------|
  b----------------------------------------------------------------------|
  e----------------------------------------------------------------------|

   Guitar 2
  e----------9--------5--------7----5------------------------------------|
  a-7-------11--------7--------9----7-x2---------------------------------|
  d-9-------11--------7--------9----7------------------------------------|
  g-9--------------------------------------------------------------------|
  b----------------------------------------------------------------------|
  e----------------------------------------------------------------------|
   Guitars 1&2
  e-------------9--9--9--9----5-5-5-5----7-7----5-5----------------------|
  a-7-7-7-7----11-11-11-11-x2-7-7-7-7-x2-9-9-x2-7-7-x2-------------------|
  d-9-9-9-9-x2 11-11-11-11----7-7-7-7----9-9----7-7----------------------|
  g-9-9-9-9--------------------------------------------------------------|
  b----------------------------------------------------------------------|
  e----------------------------------------------------------------------|
Comments