Eagles - New Kid In Town Chords & Tabs

 

New Kid In Town Chords & Tabs

Eagles Chords & Tabs

Version: 2 Type: Tab

New Kid In Town Tab

   
     new kid in town
words and music by: don henley,glen frey and john david souther


intro: e, b7, e

         e-----------------------------------------|
         b--------77h9-7h9-------------------------|
         g-----9-----------------------------------|
         d---9-------------------------------------|
         a-----------------------------------------|
         e-----------------------------------------|

gtr 2.
        e--------------------------------------------|
        b--------------------------------------------|
        g---4h6-4------------------------------------|
        d---4h6-4h7----------------------------------|
        a--------------------------------------------|
        e--------------------------------------------|

 gtr 1.
       e---------------------------------|
       b---------------------------------|
       g------7h9--7---------------------|
       d------7h9--7h9-------------------|
       a---------------------------------|
       e---------------------------------|
[ Tab from: http://www.guitartabs.cc/tabs/e/eagles/new_kid_in_town_tab_ver_2.html ]
gtr 2.
      e------------------------------------------------------------12------|
      b------------------------------------------------------------12------|
      g------------6\4-------14---14\11----11\9---9---6--6-----------------|
      d----4h6-----6\4-------14---14\11----11\9---9---7--7-----------------|
      a----4h6-------------------------------------------------------------|
      e--------------------------------------------------------------------|
gtr 2.
      e---12---12\9---9---7---7\5---5-----------12---------------|
      b---12---12\9---9---7---7\5---5--------12------------------|
      g----------------------------------------------------------|
      d----------------------------------------------------------|
      a----------------------------------------------------------|
      e----------------------------------------------------------|


thats it folks!  pls don't hessitate to e-mail me if you have any question regarding 
 thank you and enjoy!
    i would like to say heeellloooooo to all my kumpare sa woking at sa mga batang mental.