Eagles - Hotel California Chords & Tabs

 

Hotel California Chords & Tabs

Eagles Chords & Tabs

Version: 7 Type: Tab 0 ratings
1 star 2 stars 3 stars 4 stars 5 stars
comments

Hotel California Tab

Posted by Alejandro Mendez
          
"Hotel Caifornia"

I saw no point in putting the song´s tabs you all already know them. 

                           
E||-7--------7------7--------7--------6------6------9---6---
B||-------7----7---------7-----------------7---7------------
G||----7---------7-----------7-----------6-------6----------
D||-9--------------------9------------8---------------------
A||---------------------------------------------------------
E||---------------------------------------------------------

[ Tab from: http://www.guitartabs.cc/tabs/e/eagles/hotel_california_tab_ver_7.html ]
5-----5------5---------4------4------7--4---3------3------3-
----5---5-------5-----------5---5----------------3---3------
--6-------6---------------4-------4------------4-------4----
7----------------------6--------------------5---------------
----------------7-------------------------------------------
------------------------------------------------------------

--------------2------2------4--2----0------0------0--------
---------3---------3---3-----------------0---0-------------
-2---2/4---------2-------2-------------1-------1-----1-----
--------------0---------------------2----------------------
-----------------------------------------------------------
-----------------------------------------------------------

-2------2------2------2-----
------2---2-----------2-----
----3-------3---------3-----
-2--------------------2-----
----------------------4-----
----------------------2-----
Comments