Eagles - Hotel California Live Chords & Tabs

 

Hotel California Live Chords & Tabs

Eagles Chords & Tabs

Version: 2 Type: Tab 2 ratings
1 star 2 stars 3 stars 4 stars 5 stars
comments

Hotel California Live Tab

   
HOTEL CALIFORNIA by The Eagles (Live Version)
Tabbed by Leewoys Thomas damo cuz

  Bm9                                     A/B (an A works as well) 
|-9-------------------------------------|-2-------------------------------|
|-7------------2-3-5-7-7/8\7-5/7~~~~----|-02-------3-2--------------------|
|-7--4-4h6p4-4--------------------------|-2---2-4--------2-2/4------------|
|-7-------------------------------------|-02----------------------4/2-----|
|-9-------------------------------------|-02--------------------------5/7-|
|-7-------------------------------------|-2-------------------------------|

 Em                              ******REPEAT******          F#7
-7--------0------0------0------0|---7p0---10p0-You Play |-----7-6-7/9/10-9-10/12/14----|
-8------0------0------0------0--|--8-----8-----this part|---8--------------------------|
-9----0------2------4------7----|-9-----9------for a    |-9----------------------------|
-9--2------4------5------9------|--------------long time|------------------------------|
-X------------------------------|--------------|        |------------------------------|
-X------------------------------|--------------|        |------------------------------|
                                                            
*5 BARS OF PERCUSSION THEN PLAY:

  Bm9                                    A/B
|-9----2h3p2---2-2---2---|-------------|-2-----------------------
|-7----------5-----5---3-|-5p3---3-----|-02------3p2---2--2------
|-7--4-------------------|-----4---2/4-|-2---2-4-----4------2--4-
|-7----------------------|-------------|-02----------------------
|-9----------------------|-------------|-02----------------------
|-7----------------------|-------------|-2-----------------------

                                Em
-----------------7--9-10-9-10-|-12\----------0--------0--------0-
-----5-8--7-7-8h10------------|------------0--------0--------0---
-6-7--------------------------|----------0--------2--------4-----
------------------------------|-------2--------4--------5--------
------------------------------|----------------------------------
------------------------------|----------------------------------

                             F#7
-------0-7p0---10-12-10----|---9-9h10p9/7-7h9p7/6--3-2-2-2-3-2--0-2----------|
-----0------------------12-|----------------------------------------3--2-----|
---7-----------------------|---------------------------------------------4-3-|
-9-----------9-------------|-------------------------------------------------|
---------------------------|-------------------------------------------------|
---------------------------|-------------------------------------------------|

*THE FINGER PLUCKING FOR THE THE FIRST BIT
PLAY THE CHORDS AND PLUCK IT
(SOME OF THESE CHORDS ARE JAZZ CHORDS)
 Bm                   F#7              A                          E
|7------------7------|7------------7--|7-----------7-------------|7----7----------7--|
|7--------7-----7-7--|7--------7------|10---10------10-----------|7------7--------7--|
|7----7-----7---9----|9----9-----9----|9-------9-------9---------|7--7-----7------7--|
|9--9---9------------|8--8---8--------|7--7--------------7----7--|0-----------12-----|
|9-------------------|9---------------|0--------------------7----|0------------------|
|0-------------------|0---------------|0-------------------------|0------------------|

 G                          D                    Em                    F#7   
|7-------------7-----------|10--------10--------|7------------7-------|7-----------7--|
|8---------8------------8--|7-----7------7------|8--------8------7-7--|7-------7------|
|7-----7-----7---7-7h9-----|7-------7------7----|9----9-----9----9----|9---9-----9----|
|9---9---9-----------------|7---7------------7--|9--9---9-------------|8--8--8--------|
|10------------------------|0-------------------|7--------------------|9--------------|
|0-------------------------|0-------------------|0--------------------|0--------------|





*This is the bass run which leads into the song.  
*THERES TWO GUITARAISTS ONE PLUCKING AND ONE DOING THE BASS RUN.                                                   E7
|----------|----------------|-----------|hit these|------------0---|
|----------|----------------|-----------|notes    |--------0-------|
|----------|----------------|-----------|while    |1----1-----1----|
|------2-4-|-2-----0h2p0----|-----------|playing  |-------0--------|
|-5--------|-------------4--|-4--5-5/7--|chord    |2--2------------|
|----------|----------------|-----------|         |----------------|
                                        
|-----------------|-------------|----------|-----------|
|-----------------|-------------|----------|-----------|
|-----------------|-------------|----------|-----------|
|-----------------|--2/4-0------|-2----4-5-|-4h5-2h4---|
|-2----4---5---0--|-------------|----------|-----------|
|-----------------|-------------|----------|-----------|



*1st time           *second time
B-3-3--3--3-------- E|-9--9--9-/7-7-7/5-5\
G-2-2--4--2-/6-4-2- B|-10-10-10/8-8-8/7-5\
D-----------/7-5-4-
A------------------

   
CHORUS (with ending 2)
[ Tab from: http://www.guitartabs.cc/tabs/e/eagles/hotel_california_live_tab_ver_2.html ]
1st solo:
         Bm                     F#
|-------|---------------------|-7-5-3-2----9-10-|
|-------|---------------------|-----------------|
|-----6-|9--9-9-9-9\7-6-9-7-6-|-7-6-4-3---------|
|-8-9---|---------------------|-----------------|
|-------|---------------------|-----------------|
|-------|---------------------|-----------------|
A                                       E
|-12-12-12-12~~~12-10-9----10-9-------|-------------|
|-----------------------12------12-10-|-9-----------|
|-------------------------------------|---9---------|
|-------------------------------------|-----9-------|
|-------------------------------------|-------9h11--|
|-------------------------------------|-------------|
    G                             D
|--------------------------------|-----------|
|--------------------------------|-----------|
|----------------------------2/4-|2-----4----|
|--------------2----4-2--5-4-----|---12---4--|
|-----0-2--5-4---5---------------|----|------|
|---3----------------------------|----|------|
                                      |
                                      --harmonic

  Em                       F#7
|-0------0------0-------0-|---2----------2-2-
|---0------0------0-----0-|-----2----------2-
|-----0------0------0---0-|-------3----------
|-------2------2------2---|---------4------4-
|-------------------------|-----------4------
|-------------------------|-2-----------2----
  *****roll w/pick hand finger***********

2nd solo:
                         Bm
------------------------|----------------------------------------------------|
------------------------|----------------------------------------------------|
------------------9-11--|11h12p11\9-11----9-11-11h12p11\9-9h11p9\7-7h9p7\6---|
-9h11p9\8-9-11-12-------|--------------12----------------------------------9-|
------------------------|----------------------------------------------------|
------------------------|----------------------------------------------------|
  F#                          A
|-------------------14-------|------------------------|
|-------12-14-12-11----------|--7-7-7-5-5-5-----------|
|---6-9----------------------|--------------7-7-6-4-2-|
|-8---------------------12\--|7-----------------------|
|----------------------------|------------------------|
|----------------------------|------------------------|
  E                                  G
|-------------------------0--------|--------------------------------3-|
|---3-3h5p3\2-2h3p2\0--------------|----------------------------3-5---|
|-1-------------------2-1----------|------------2-4-4h6p4\3-4-6-------|
|------------------------------2-4-|-5h7p5\4-5------------------------|
|----------------------------------|----------------------------------|
|----------------------------------|----------------------------------|
   D                                       Em
|-/5-5-5-5/7-5-3/5-----------------------|-------3p0---7p3-0-10p7----12p10----|
|-/7-7-7-7/8-7-5/7-----------------0h2h3-|-5p0-------0------------11-------12\|
|--------------------------0h1h2h3-------|-----0------------------------------|
|------------------0h2h3h4---------------|------------------------------------|
|----------------------------------------|------------------------------------|
|----------------------------------------|------------------------------------|
  F#
|-2-2h3p2\0---0h2-0-------------------0-|
|-----------3-------3-2h3p2p0-2-3p2-3---|
|---------------------------------------|
|---------------------------------------|
|---------------------------------------|
|---------------------------------------|

Outro: 

GTR 1
   Bm                                   F#
e|------------------------------------|-----------------/6-|
B|-7p3----7p3----7p3----7p3----7p3----|-5p2---5p2---5p2----|
G|------4------4------4------4------4-|-----3-----3--------|

GTR 2
e|-10p7---10p7---10p7---10p7---10p7---|-9p6---9p6---9p6/14-|
B|------7------7------7------7------7-|-----7-----7--------|
G|------------------------------------|--------------------|


GTR 1
   A                               E
e|-------------------------------|-----------------/4-|
B|-5p2---5p2---5p2---5p2---5p2---|-3p0---3p0---3p0----|
G|-----2-----2-----2-----2-----2-|-----1-----1--------|

GTR2
e|-9p5---9p5---9p5---9p5---9p5---|-7p4---7p4---7p4/12-|
B|-----5-----5-----5-----5-----5-|-----5-----5--------|
G|-------------------------------|--------------------|


GTR 1
   G                               D
e|-------------------------------|--------------------|
B|-3p0---3p0---3p0---3p0---3p0---|-3-----3-----3---/7-|
G|-------------------------------|---2-----2-----2----|
D|-----5-----5-----5-----5-----5-|-----4-----4--------|

GTR 2
e|-7p3---7p3---7p3---7p3---7p3---|-5p2---5p2---5-/-10-|
B|-----3-----3-----3-----3-----3-|-----3-----3--------|
G|-------------------------------|--------------------|


GTR 1
   Em                                  F#                               Bm
e|-----------------------------------|-------------------2------------|-2-|
B|-4p0---4p0---4p0---4p0---4p0---3h4-|-2-----3p0---5p2-----3---3p2----|-3-|
G|-----2-----2-----2-----2-----2-----|---3-------------3-----4----3-5-|-4-|
D|-----------------------------------|-----4-----4--------------------|-4-|
                                                                      |-2-|
GTR 2
e|-3p0---3p0---3p0---3p0---3p0-------|-------2----6----7--------------|-7-|
B|-----0-----0-----0-----0-----0-2h3-|-5-2-----3----7----7-------7-11-|-7-| 
G|-----------------------------------|-----3-----4----9----7-7-9------|-7-|
D|-----------------------------------|--------------------------------|-9-|


By Leewoys Thomas damo cuz
Comments