Eagles - Hotel California Acoustic Chords & Tabs

 

Hotel California Acoustic Chords & Tabs

Eagles Chords & Tabs

Version: 1 Type: Tab 0 ratings
1 star 2 stars 3 stars 4 stars 5 stars
comments

Hotel California Acoustic Tab

   
Eagles
Hotel California
Tabber: Unknown

Bm open  Fm open  Asus   E    G    D    D2  D4    Em    Em7     Em9
e-0---------0------0-----0----3----2----0-----3----0------3------0-----
B-3---------0------0-----0----3----3----3-----3----0------0------3-----
G-4---------3------6-----1----0----2----2-----2----0------0------0-----
D-4---------4------7-----2----0----0----0-----0----2------2------2-----
A-x---------4------7-----2----2----0----0-----0----2------2------2-----
E-x---------x------x-----0----3----0----0-----0----0------0------0-----

     Bm open                   Fm open                     A sus                                      E
[ Tab from: http://www.guitartabs.cc/tabs/e/eagles/hotel_california_acoustic_tab.html ]
e------------0----0----0----------------------0-------------------0--------0--------------------------0------
B--------3----3----3----3-----------------------0------------0-----0--------0---------------------------0----
G-----4---------------------4-------------3--------3-------6----------6--------6------------------1--------1-
D--4---------------------------4-------4-----------------7-------------------------7-------------2-----------
A---------------------------------0--4-----------------7------------------------------7--0-----2-------------
E----------------------------------------------------------------------------------------------0-------------
          G                                D                             Em                      Fm open          
e---------------------3------3----------------2------3p2-----------------------0---3-3-0----------------0------
B-----------------------3------3-----------3---3----------3----------------------0--------3-0---------0---0----
G----------------0-------0-------0------2--------2----------2--------------0-------------------------3------3--
D-------------0---------------------0-0--------------------------0--------2------------------------4-----------
A----------2--------------------------------------------------------------2-----------------------4------------
E--0-2-3---------------------------------------------------------------0---------------------------------------


                                                              Riff 1
                                                              e------------
                                                              B------------
                                                              G------------
                                                              D------------ 
                                                              A------------
                                                              E-0-2-3------                                                                                        
                                                                            Riff 2
                                                                            e-0-----0-----------
                                                                            B---6------6--------
                                                                            G-----7------7------
                                                                            D----------------7--
                                                                            A-------------------
                                                                            E-------------------





Just continue repeating verse and chorus
Comments