Eagles - Best Of My Love Chords & Tabs

 

Best Of My Love Chords & Tabs

Eagles Chords & Tabs

Version: 1 Type: Tab 0 ratings
1 star 2 stars 3 stars 4 stars 5 stars
comments

Best Of My Love Tab

   
Best of My Love
The Eagles
Tabbed By Eric Yee



Into:
[ Tab from: http://www.guitartabs.cc/tabs/e/eagles/best_of_my_love_tab.html ]
Cmaj7  C  Repeat:  Fmaj7  F  Repeat:
-----------------]]-0--0--0--0------]]
-----0--1--1--1--]]-0--1--1--1------]]
-----0--0--0--0--]]-2--2--2--2------]]
-----0--2--2--2--]]-3--3--0--3------]]
-----3--3--x--3--]]-----------------]]
-----3--3--x--3--]]-----------------]]

Follow Chords Through Verse

Pre chorus:          Let Ring__________
7--7--5---5--7--7--------------------3-]
8--8--5---5--8--8-------------------3--]
9--9--5---5--9--9-----------------5----]
7--7--7---7--7--7---------------3------]
------------------------------3--------]
----------------------------3----------]

Back to Origianl chords
Comments