Eagles - Already Gone Chords & Tabs

 

Already Gone Chords & Tabs

Eagles Chords & Tabs

Version: 5 Type: Tab 0 ratings
1 star 2 stars 3 stars 4 stars 5 stars
comments

Already Gone Tab

|---------------------------------|
|---------------------------------|
|----------------8-10b(10)-8-10-10|
|-----------5-7/9-----------------|
|------5-5/7----------------------|
|-3-5/7---------------------------|

|------------------------------------------------|
|----13-15b-15b-15b-bup&down-13-13-13-11-12------|
|-/14--------------------------------------12-12-|
|------------------------------------------------|
|------------------------------------------------|
|------------------------------------------------|
[ Tab from: http://www.guitartabs.cc/tabs/e/eagles/already_gone_tab_ver_5.html ]
|-------------------------------------------15-15-|
|---------------------13-13---13-15-15b---13------|
|-12-11-12----------12-----/14---------/14--------|
|----------12-12-/14------------------------------|
|-------------------------------------------------|
|-------------------------------------------------|

|---------17------------------------1----------------------|
|-17bendup--benddown-15-15---13-13--15up&down--------------|
|-------------------------/14-----14---------12-14Up&downx2|
|----------------------------------------------------------|
|----------------------------------------------------------|
|----------------------------------------------------------|

|-------------------------|
|----15-------------------|
|-14b--12-12-12-11-12-----|
|--------------------12-12|
|-------------------------|
|-------------------------|

|-------------------------------|
|-------------------------------|
|-------12------12------12------|
|-12-12b--10-12b--10-12b--10-10-|
|-------------------------------|
|-------------------------------|
Comments